SR-71 Tabs

Mosquito

1 versions

TAB

            Mosquito Tab by Sr-71


Tabbed By: Mike

~ = let ring
b = bend
r = release bend
pm = palm mute
/ = slide up
\ = slide down
x = muted note


-RHYTHM IS DROP D HALF A STEP DOWN
-LEAD IS ONLY HALF A STEP DOWN


 Intro:  PART 1 - lead only

eb--------------------|
Bb------10--12--10----|
Gb--1212--12--12--12--|
Db--------------------|
Ab--------------------|
Eb--------------------|

	 PART 2

	lead (2x)
eb---------------------------------------|
Bb------10--12--10-------10--12b-r-1012--|
Gb--1212--12--12--12-1212--12------------|
Db---------------------------------------|
Ab---------------------------------------|
Eb---------------------------------------|

	rhythm
eb--------------------|
Bb--------------------| (x2)
Gb------777799995555--|
Db--5555777799995555--|
Ab--5555555577773333--|
Db--5555--------------|

  Verse:
eb------------------------------|
Bb------------------------------| (x2)
Gb--77----77----------54545454--|
Db--55----77----22----54545454--|
Ab--55----00----22----32323232--|
Db--55----00----22--------------|

Pre-chorus:

	lead -
eb------------------------------------|
Bb------10--12--10-------10--12--10---|
Gb--1212--12--12--12-1212--12--12--12-|
Db------------------------------------|
Ab------------------------------------|
Eb------------------------------------|

eb--------------------------------------|
Bb------10--12--10-------10--12b-r-1012-|
Gb--1212--12--12--12-1212--12-----------|
Db--------------------------------------|
Ab--------------------------------------|
Eb--------------------------------------|

eb------------------------------------|
Bb------10--12--10-------10--12--10---|
Gb--1212--12--12--12-1212--12--12--12-|
Db------------------------------------|
Ab------------------------------------|
Eb------------------------------------|

eb---------------------------|
Bb------10--12--10---13~-----|
Gb--1212--12--12--12---------|
Db---------------------------|
Ab---------------------------|
Eb---------------------------|

	rhythm
eb---------------------------|
Bb---------------------------| (x6)
Gb-----1212-----12-----------|
Db-----1212-----12-----------|
Ab-----1010-----10-----------|
Db---------------------------|

Chorus:
		PART 1
	rhythm
eb----------------------------------|
Bb----------------------------------| (x2)
Gb---------77777777--------55555555-|
Db-55555555777777772222222255555555-
Ab-55555555555555552222222233333333-
Db-55555555--------22222222---------

	lead
eb---------------------------------------|
Bb------10--12--10-------10--12b-r-1012--| (x4)
Gb--1212--12--12--12-1212--12------------|
Db---------------------------------------|
Ab---------------------------------------|
Eb---------------------------------------|

		PART 2
	rhythm
eb--------------------------0-0------------------|
Bb--------------------------2--2-----------------|
Gb--------------------------0---0--5-555555-5----|
Db-555555550000000022222222-2------5-555555-5----|
Ab-555555550000000022222222-0------3-333333-3----|
Db-555555550000000022222222----------------------|
 pm........................          ......

	lead
eb------------------    -----------|
Bb------------------(x3)-----------|
Gb-----1212-----12--    --------5~-|
Db-----1212-----12--    --7~----5~-|
Ab-----1010-----10--    --7~----3~-|
Eb------------------    --5~-------|

After the chorus play:

	rhythm
eb--------------------|
Bb--------------------| (x2)
Gb------777799995555--|
Db--5555777799995555--|
Ab--5555555577773333--|
Db--5555--------------|

	lead
eb---------------------------------------|
Bb------10--12--10-------10--12b-r-1012--|(x2)
Gb--1212--12--12--12-1212--12------------|
Db---------------------------------------|
Ab---------------------------------------|
Eb---------------------------------------|

Verse 2:
	rhythm
eb------------------------------|
Bb------------------------------| (x2)
Gb--77----77----------54545454--|
Db--55----77----22----54545454--|
Ab--55----00----22----32323232--|
Db--55----00----22--------------|

	lead - play through whole verse
eb--------------------|
Bb------10--12--10----|
Gb--1212--12--12--12--|
Db--------------------|
Ab--------------------|
Eb--------------------|

Pre-chorus 2:

	rhythm
eb---------------------------|
Bb---------------------------| (x6)
Gb-----1212-----12-----------|
Db-----1212-----12-----------|
Ab-----1010-----10-----------|
Db---------------------------|

	 lead - plays rite after above
		 is played 2nd time and
	         continues into the third
		 time the above is played
eb-----------------|
Bb-----------------|
Gb--9--7-----------|
Db--------9--7--5--|
Ab-----------------|
Eb-----------------|

	lead plays this after the 6th time
	     the rhythm plays its part.
eb---------------------------|
Bb---------------------12~---|
Gb-----------7--9--12--------|
Db--5--7--9------------------|
Ab---------------------------|
Eb---------------------------|

 PLAY CHORUS HERE AGAIN - BOTH PARTS (1&2)

Bridge:
	rhythm
eb-------------------------------|
Bb-------------------------------|
Gb-------------------------------|
Db--99----77----5555555555555555-|
Ab--99----77----5555555555555555-|
Db--99----77----5555555555555555-|

eb---------------------------------------------|
Bb---------------------------------------------|
Gb------------------------------77777777777777-|
Db--99----77----555555555555555577777777777777-|
Ab--99----77----555555555555555555555555555555-|
Db--99----77----5555555555555555---------------|

	lead
eb----------------------------------|
Bb-1212---1010----------------------|
Gb-1111----9-9----------------------|
Db--9-9----7-7----------------------|
Ab-----------------7579757975799975-|
Eb----------------------------------|

eb----------------------------------------------|
Bb-1212---1010----------------------------------|
Gb-1111----9-9----------------------------------|
Db--9-9----7-7----------------------------------|
Ab----------------------5/7-5-3-7-9--10--12--12-|
Eb----------------------------------------------|

Solo:

eb-----------------------------------|
Bb-----------------------------------|
Gb-----7/9---7-----------------------|
Db--5-----------75-5/9-109-7-5-------|
Ab------------------------------7757-|
Eb-----------------------------------|

eb-----0-----5--7---8---8/10\-8--7---15--17--19-|
Bb-----5--7--7--8--10--10/12\10--8----x---x---x-|
Gb--0-----7--------------------------16--17--19-|
Db--5-------------------------------------------|
Ab----------------------------------------------|
Eb----------------------------------------------|

rhythm behin solo:
eb----------------------------------|
Bb----------------------------------|
Gb---------77777777--------55555555-|
Db-55555555777777772222222255555555-
Ab-55555555555555552222222233333333-
Db-55555555--------22222222---------

eb--------------------------------------------------|
Bb--------------------------------------------------|
Gb---------77777777----------------5555555555555555-|
Db-555555557777777722222222222222225555555555555555-
Ab-555555555555555522222222222222223333333333333333-
Db-55555555--------2222222222222222-----------------

Interlude:     im pretty sure its the rhythm guitar
		here put it was put in later in the
		studio where it wasnt tuned to drop D
		so just let the lead guitar play this.
	  lead
eb-------3----------3---------3---------3---------|
Bb-----3--3-3-----3--3-3----3--3-3----3--3-3------|
Gb------0--0-------0--0------0--0------0--0-------|
Db---0----------0-------------------2-------------|
Ab------------------------2--------3--------------|
Eb-3----------2----------0------------------------|

eb-------3----------3---------3---------3----------3----3-|
Bb-----3--3-3-----3--3-3----3--3-3----3--3-3-----3--3-3-3-|
Gb------0--0-------0--0------0--0------0--0-------0--0--0-|
Db---0----------0------------------------------2--------2-|
Ab------------------------2---------2---------3---------3-|
Eb-3----------2----------0---------0----------------------|
                         |
 then this is where the lead really comes in on the track
 but because youve already got the lead playing the above
 the rhythm guitar can do it.
                         | this part comes in for the last
 	rhythm		 | quarter of the above.
eb-----------------------------------------------------|
Bb------10--12--10-------10--12--10-------10--12--10---|
Gb--1212--12--12--12-1212--12--12--12-1212--12--12--12-|
Db-----------------------------------------------------|
Ab-----------------------------------------------------|
Eb-----------------------------------------------------|

Final Chorus:
		Part 1
	rhythm
eb----------------------------------|
Bb----------------------------------| (x2)
Gb---------77777777--------55555555-|
Db-55555555777777772222222255555555-
Ab-55555555555555552222222233333333-
Db-55555555--------22222222---------

	lead
eb---------------------------------------|
Bb------10--12--10-------10--12b-r-1012--| (x4)
Gb--1212--12--12--12-1212--12------------|
Db---------------------------------------|
Ab---------------------------------------|
Eb---------------------------------------|

	     	 Part 2
	rhythm
eb----------------------------------|
Bb----------------------------------| (x2)
Gb---------77777777--------55555555-|
Db-55555555777777772222222255555555-
Ab-55555555555555552222222233333333-
Db-55555555--------22222222---------

	lead
eb-----------------------------------|
Bb-----------------------------------|
Gb-----7/9---7-----------------------|
Db--5-----------75-5/9-109-7-5-------|
Ab------------------------------7757-|
Eb-----------------------------------|

eb-----0-----5--7---8---8/10\-8--7-|
Bb-----5--7--7--8--10--10/12\10--8-|
Gb--0-----7------------------------|
Db--5------------------------------|
Ab---------------------------------|
Eb---------------------------------|

Outro:
	rhythm
eb-----------------------------3-------------------|
Bb-------------------------------2-2---------------|
Gb----------------------------0---0-----5-555555-5-|
Db-555555550000000022222222--2----------5-555555-5-|
Ab-555555550000000022222222-0-----------3-333333-3-|
Db-555555550000000022222222------------------------|
 pm........................
	lead
eb------------------    --------------|
Bb------------------(x3)--------------|
Gb-----1212-----12--    --------5~--5-|
Db-----1212-----12--    --7~----5~--5-|
Ab-----1010-----10--    --7~----3~--3-|
Eb------------------    --5~----------|

There it is. A Long and detailed tab for Mosquito
by SR-71. Ill work on making a CORRECT tab for
In Your Eyes next (no offense to the person who made
the other tab for it) and thats about it. L8R.    

Added On December 12th, 2013

SHARE

Comments

blog comments powered by Disqus

ADVERTISEMENT