Steve Vai Tabs

Halo Theme Tune

1 versions

TAB

            here is the riff hope this helps


Track 1
     Q.     E.  E.  E  E     E.  E.  E  Q    Q       H        Q    E  E   
E||-----------------------|-----------------------|----------------------|
B||-----------------------|-----------------------|----------------2--L--|
G||-----------------------|--2--------------------|-----------4----------|
D||--2------4---5---4--L--|------5---4--L----2----|--L-------------------|
A||-----------------------|-----------------------|----------------------|
E||-----------------------|-----------------------|----------------------|


  H        Q    Q       Q    H        Q       Q    Q    Q    Q     
---------------------|---------------------|----------------------|
--3--------2---------|--2------------------|----------------------|
----------------2----|-------4--------L----|-----------------0----|
---------------------|---------------------|-------0----2---------|
---------------------|---------------------|--2-------------------|
---------------------|---------------------|----------------------|


  Q    Q.     Q    E     Q    Q    Q    Q       Q    H.            
----------------------|----------------------|--------------------|
----------------------|----------------------|--------------------|
--2-------------------|--0-------------------|--------------------|
-------4------2----L--|-------4----2----4----|--0----2------------|
----------------------|----------------------|--------------------|
----------------------|----------------------|--------------------|


                        |--3--|                  |--3--|                
  W                     E  E  E  H.              E  E  E  H.            
-------------------||-------------------------|------------------------|
-------------------||-------------------------|------------------------|
-------------------||*-----------9------------|-----------11-----------|
--L----------------||*-----------9------------|-----------11-----------|
-------------------||------------7------------|-----------9------------|
-------------------||---0--0--0---------------|--0--0--0---------------|


  |--3--|                   |--3--|                 
  E  E  E   H.              E  E  E   H.            
-------------------------|-------------------------|
-------------------------|-------------------------|
-----------12------------|-----------14------------|
-----------12------------|-----------14------------|
-----------10------------|-----------12------------|
--0--0--0----------------|--0--0--0----------------|


   |---3--|                     ---  
   E   E  E  H        Q     4x       
----------------------------||-----||
----------------------------||-----||
---------------------------*||-----||
---------------------------*||-----||
--12--10--9--L--------------||-----||
----------------------------||-----||    

Added On December 16th, 2013

SHARE

Comments

blog comments powered by Disqus

ADVERTISEMENT