Sublime Tabs

Drunk Driving

1 versions

TAB

            this is a nice little song so heres the tab.

Guitar:
C     B    A     G      F#      E          C     B    A        G
Drunk Drivin' is what I like to do, I like drunk drivin with you

riff

e-----------|
B-----------|
G-----------|
D-----2-4-5-|
A-2-4-------|
E-----------|

Then a C7

Bass:

G---------------------------|
D---------------------------|
A-3-2-0-0-0-------3-2-0-----|
E-----------3-2-0-------3-3-|    

Added On December 16th, 2013

SHARE

Comments

blog comments powered by Disqus

ADVERTISEMENT