TAB

            Hey Tab by Suicide Machines


-------------------------------------------------------------------------------
			     Hey Ska - Suicide Machines
-------------------------------------------------------------------------------
Tabbed by:The Fisherman
Email:imsoproudofit_iputmynameonit@hotmail.com
 
Love this song and couldn't find a decent tab for it so tried to figure it out myself.
Not exact i know, but sounds fairly good to me. Haven't figure out the strumming in the
verse yet, but i'll try figure it out soon and update it(Let me know if ya have any idea,
please!!, or any corrections to whats here). 

My slide up key doesnt work, so i used a > instead :-)

Tuning:Standard

Intro  x12
e|---------------------------------------------------------------------------|
B|---------------------------------------------------------------------------|
G|---------4>5\4-------------------------------------------------------------|
D|---2-2---4>5\4--5-4--------------------------------------------------------|
A|---2-2---2>3\2--5-4--------------------------------------------------------|
E|---0-0----------3-2--------------------------------------------------------|


e|---------------------------------------------------------------------------|
B|---------------------------------------------------------------------------|
G|---------------------------------------------------------------------------|
D|------------4-7-5------------4-7-5-----------------------------------------|
A|----4-7-5-4----------4-7-5-4-----------------------------------------------|
E|--5----------------5-------------------------------------------------------|    

Added On December 12th, 2013

SHARE

Comments

blog comments powered by Disqus

VERSIONS

ADVERTISEMENT