TAB

            Ozena Tab by Superjoint Ritual


Song: Ozena
By: Superjoint Ritual
Album: Use Once and Destroy 
Tuning: C#
Tabbed by Necromonicbreadlord 
Email: mayhemman66@hotmail.com 

Riff 1
|---------------------------------------------|
|------------55-------------------------------|
|----------55--55-7---------------------------|
|--00-55-66---------0-3-----------------------|
   pm 


Riff 2
|--------------77-------------------------------|
|-----------77-55-77-9--------------------------|
|--22-77-88-55----55-7-2-5----------------------|
|--00-55-66------------0-3----------------------|


This should help you get started. I will post SJR the song when I get time.    

Added On December 12th, 2013

SHARE

Comments

blog comments powered by Disqus

VERSIONS

ADVERTISEMENT