Tegan And Sara Tabs

Freedom Uflo

1 versions

TAB

            Freedom Uflo Tab by Tegan And Sara


Intro

e--------------------|
B--------------------|
G--------------------|
D--------------------|
A--5~----------------|
E--------1-p3--------|


e--------------------|
B--------------------|
G--5/7----2/5--------|
D--5/7----3/5--------|
A--3/5----3/5--------|
E---------1/3--------|

And that's pretty much it.    

Added On December 12th, 2013

SHARE

Comments

blog comments powered by Disqus

ADVERTISEMENT