The Devil Wears Prada Tabs

Dont Dink And Drance

1 versions

TAB

            ---------------------------------------------------------------------------
	     Don't Dink And Drance - The Devil Wears Prada
---------------------------------------------------------------------------
Tabbed by: ilost8dollars
Email:myspace.com/ilost8dollars

Tuning: Drop D - DADGBE

im sorry i cannot figure out the full intro yet. but i did figure out the rest im pretty sure!!

to hear this song go to this link. its not on there myspace its an exclusive on absolutepunk.com

http://www.absolutepunk.net/artists/showlink.php?l=4111&catid=searchresults&searchid=1839871


feel free to comment and send corrections!!


0:40-0:56
e|---------------------------|
B|---------------------------|
G|---------------------------|
D|-65~-3~-131~-65~-3~-000-000|
A|-65~-3~-131~-65~-3~-000-000|
D|-65~-3~-131~-65~-3~-000-000|X4
                      *** ***
0:57 - 1:00                   1:01 - 1:05
e|---------------------------||-------------------------------|
B|---------------------------||-------------------------------|
G|---------------------------||-------------------------------|
D|---------------------------||-------------------------------|
A|-0~-0~-0~-0-0000~-0~-0~-0~-||-00000~-00000~-00000~-00000-1~-|
D|-0~-0~-0~-0-0000~-0~-0~-0~-||-00000~-00000~-00000~-00000-0~-|
   *  *  *  * ****  *  *  *     *****  *****  *****  ***** *
1:06 - 1:14   
|------------------------------------------|
|------------------------------------------|
|------------------------------------------|
|------------------------------------------|
|-00000-00000-00000-00000-00000-00000-1111-|
|-00000-00000-00000-00000-00000-00000-1111-|X2 
  ***** ***** ***** ***** ***** ***** ****
1:15 - 1:23
e|-------------------------------------------------------------|
B|-------------------------------------------------------------|
G|-/10-----9---------------------------------------------------|
D|--x-(x4)-x-(x4)-12\--------10------------------------------7-|
A|-/8------7------12\--000-8---000-000-000-000-000-000-000-8---|
D|----------------12\--000-----000-000-000-000-000-000-000-----|
                       ***     *** *** *** *** *** *** ***

1:24 - 1:26
e|---------------------|
B|---------------------|
G|---------------------|
D|---------------------|
A|-000-000-000-000-000-|
D|-000-000-000-000-000-|
   *** *** *** *** ***

1:27 - 1:30 
this part you cant hear that good but its in the background.
e|-------------------------------------|
B|-------------------------------------|
G|-1414141414-12-10-1212121212-11-9-10-|
D|-x-x-x-x-x--x--x--x-x-x-x-x--x--x-x--|
A|-1212121212-10-8--1010101010-9--7-8--|
D|-------------------------------------|
  
1:31 - 1:37 
you can figure out the rhythm
e|--------------------------------------------------------|
B|--------------------------------------------------------|
G|--------------------------------------------------------|
D|--------------------------------------------------------|
A|-0000-0000-0000-0000-0000-0000-0000-0000-0000-0000-0000-|
D|-0000-0000-0000-0000-0000-0000-0000-0000-0000-0000-0000-|
   **** **** **** **** **** **** **** **** **** **** ****

1:38 - 1:42 
this is another part that is hard to hear but its there.
e|-------------------------------||-------------------------------------|
B|-------------------------------||-------------------------------------|
G|-14-12-11-12-10-9-10-9-7-9-7-5-||--10-----9------10-----12-----14-----|
D|-x--x--x--x--x--x-x--x-x-x-x-x-||--x-(x5)-x-(x5)-x-(x5)-x-(x8)-x-(x8)-|
A|-12-10-9--10-8--7-8--7-5-7-5-3-||--8------7------8------10-----12-----|
D|-------------------------------||-------------------------------------|

1:56 - 2:02
e|--------------------------------------------------------------|
B|--------------------------------------------------------------|
G|--------------------------------------------------------------|
D|-------------------------6-0-5-0-3~----------------6-0-5-0-3~-|
A|--5----5h6p5-------------6-0-5-0-3~--5----5h6p5----6-0-5-0-3~-|
D|----00-------00-3h4p3-00-6-0-5-0-3~----00-------00-6-0-5-0-3~-|
      **       **       **   *   *       **       **   *   *
2:03 - 2:10
e|-------------------------------------------------------------|
B|-------------------------------------------------------------|
G|-------------------------------------------------------------|
D|-7----7/8\7-------------6-0-5-0-3~--7----7/8\7----6-0-5-0-3~-|
A|-5----5/6\5-------------6-0-5-0-3~--5----5/6\5----6-0-5-0-3~-|
D|---00-------00-3h4p3-00-6-0-5-0-3~----00-------00-6-0-5-0-3~-|
     **       **       **   *   *       **       **   *   *

2:11 - 2:25
e|--------------------------------------------------------------------|
B|--------------------------------------------------------------------|
G|----15------------------15---------14------------15---------16------|
D|-0~-14(x4)-PICKSLIDE-0~-14(x12)-0~-13(x12)-PS-0~-14(x12)-0~-15(x12)-|
A|-0~-13-----PICKSLIDE-0~-13------0~-12------PS-0~-13------0~-14------|
D|-0~------------------0~---------0~------------0~---------0~---------|

2:26 - 2:38
e|---------||---------0-||---------------------|
B|---------||---------0-||---------------------|
G|---------||-----------||---------------------|
D|-0-0-0-0-||-0-0-0-0---||-0-0-0-0----0-0-0-0~-|
A|-0-0-0-0-||-0-0-0-0---||-0-0-0-0----0-0-0-0~-|
D|-0-0-0-0-||-0-0-0-0---||-0-0-0-0----0-0-0-0~-|

2:39 - 2:44
e|--------------------------------|
B|--------------------------------|
G|-15-15-15-15-15-15-14-14-14-14~-|
D|-14-14-14-14-14-14-13-13-13-13~-|
A|-13-13-13-13-13-13-12-12-12-12~-|
D|--------------------------------|

2:45 - 2:49
e|-----------------------|
B|-----------------------|
G|-----------------------|
D|-----------------------|
A|-1111-111111-1/6\1/6\1-|
D|-1111-111111-1/6\1/6\1-|
   **** ******

2:50 - 2:53
this part is kinda wierd. 
you have to like pinch harmonic the strings.
e|----------------------|
B|----------------------|
G|----------------------|
D|------------------|
A|-1111-111111------|
D|-1111-111111------|
   **** ******
2:54 - 2:56
e|-----------------------|
B|-----------------------|
G|-----------------------|
D|-----------------------|
A|-1111-111111-1/6\1/6\1-|
D|-1111-111111-1/6\1/6\1-|
   **** ******
2:57 - 3:00
e|----------------------|
B|----------------------|
G|----------------------|
D|------------------|
A|-1111-111111------|
D|-1111-111111------|
   **** ******



| PS pickslide
| *  palm mute
| /  slide up
| \  slide down
| h  hammer-on
| p  pull-off
| ~  vibrato
|   harmonic
| x  Mute note
============================================================================    

Added On December 16th, 2013

SHARE

Comments

blog comments powered by Disqus

ADVERTISEMENT