TAB

            Title - Alone
Artist - The Expendables
Album - No Time To Worry
Track # - 18
Tabbed By - Richard K.
Tuning - Standard(eADGBE)
E-Mail - Island_buddah@yahoo.com or Island_guitar_boy88@hotmail.com

Intro/(Play The Power Chords 8x Each With Distortion)

e----------------|
B----------------|
G--7--11---------|  Play 4x
D--7--11--9--7---|
A--5---9--9--7---|
E---------7--5---|

Verse 1 Clean(Play Each Chord 4x Each...But When The Chords Start To
Play Dont Play the Last Chord First Time Around)

e--5--5--2--5----|
B--7--5--3--5----|
G--7--6--4--6----|  Play 6x
D--7--7--4--7----|
A--5--7--2--7----|
E--x--5--2--5----|

Chorus  1 Distorted

e----------------|
B----------------|
G--7--11---------|  Play 4x
D--7--11--9--7---|
A--5---9--9--7---|
E---------7--5---|

Verse 2 Clean

e--5--5--2--5----|
B--7--5--3--5----|
G--7--6--4--6----|  Play 6x
D--7--7--4--7----|
A--5--7--2--7----|
E--x--5--2--5----|

Chorus 2 Distorted

e----------------|
B----------------|
G--7--11---------|  Play 4x
D--7--11--9--7---|
A--5---9--9--7---|
E---------7--5---|

Bridge Distorted(Play 8x Each...after The Bridge They Start To Play The Chords From The Chorus)

e----------------|
B----------------|
G--------4--2----|  Play 4x
D--5--4--4--2----|
A--5--4--2--0----|
E--3--2----------|

Well Thats It....When The Chorus Chords Come In After The Bridge U End On
G--7-- Thanx.
D--7--
A--5--    

Added On December 16th, 2013

SHARE

Comments

blog comments powered by Disqus

ADVERTISEMENT