The Fall Tabs

Fortres Deer Park

1 versions

TAB

            BAND: The Fall
ALBUM: Hex Enduction Hour
SONG: Fortress/Deer Park (6:41)
Tabbed by: Mauricio Hornek (horneko@gmail.com)

since it's The Fall, and since it's "Hex Enduction Hour", they do a lot of extra stuff
here and there. i'm not completely sure about Fortress, if you think you can do better,
stop whining and just do it, although i don't think you will cause apparently nobody 
tabbed this before me, ever, so I guess you should be grateful, most of it is correct. cheers.

1. FORTRESS

e------------------------|
B------------------------|
G-----------------3-3-3--|
D--3-3--5-7-5-3---3-3-3--|
A--3-3--5-7-5-3---1-1-1--|
E--1-1--3-5-3-1----------|

VERSES:
A / G


FORTRESS TO DEER PARK (1:23)

e----------------------------------|
B----------------------------------|
G--7-7-5-5-7-7-5-5-7-7-5-7---7-7-7-|
D--7-7-5-5-7-7-5-5-7-7-5-7---7-7-7-| 2x
A--5-5-3-3-5-5-3-3-5-5-3-5---5-5-5-|
E----------------------------------|

from 1:29 to 1:36, play A5. the bass until now just follows the guitar. then

2. DEER PARK

that crazy keyboard goes:

e--5-5-5-5-5-5-5-5-5-5-5-5-5-8-8-8--|
B-----------------------------------|
G-----------------------------------|
D-----------------------------------|
A-----------------------------------|
E-----------------------------------|

BASS

G----------------------------------|
D----------------------------------|
A--------------3-3-----------------|
E--5-5-3-3-5-5-----5-5-3-5---0-3-4-|


that's it.
don't forget, it's The Fall, so feel free to jam and experiment.    

Added On December 16th, 2013

SHARE

Comments

blog comments powered by Disqus

ADVERTISEMENT