The Living End Tabs

Reborn

2 versions

TAB

            Reborn Tab by The Living End


              REBORN

/= slide up
\= slide down
p= pull off
h= hammer on
b= half bend
^= full bend
^^= bend 2 frets
v= bring bend down
pm= palm mute
~= vibrado


Intro:

e---------------------|--------------------------|
b---------------------|--------------------------|
g---------------------|--------------------------|
d--4-4-\-4-5-2--(x3)--|--4-4--x-x-x--4-4--x-x-x--|
a--4-4-\-4-5-2--------|--4-4--x-x-x--4-4--x-x-x--|
e--2-2-\-2-3-0--------|--2-2--x-x-x--2-2--x-x-x--|



Verse: Some kind of palm muted finger picking going on.
       Try play with both pick and fingers. Listen for timing

e----------------------------|----------------------------|
b----------------------------|----------------------------|
g--4--4----4------4------4---|--4--4----------------------|
d--4--4--4------4------4-----|--5--5----5------5------5---|
a--2--2------2------2------2-|--5--5--5------5------5-----|
e----------------------------|--3--3------3------3------3-|
         pm.................         ...................

e----------------------------|----------------------------|
b----------------------------|----------------------------|
g--4--4----4------4------4---|--4--4----4------4------4---|  Repeat all
d--2--2--2------2------2-----|--4--4--4------4------4-----|  as needed
a--0--0------0------0------0-|--2--2------2------2------2-|
e----------------------------|----------------------------|
         pm.................          ...................



Pre Chorus

e------------------------------------------------------------------------|
b-------------------------------------3--3--3-3--3--3-3--3--3-3--3-3--3--|
g--4--4--4-4--4--4-4--4--4-4--4-4--4--1--1--1-1--1--1-1--1--1-1--1-1--1--|
d--5--5--5-5--5--5-5--5--5-5--5-5--5--2--2--2-2--2--2-2--2--2-2--2-2--2--| x2
a--5--5--5-5--5--5-5--5--5-5--5-5--5--2--2--2-2--2--2-2--2--2-2--2-2--2--|
e--3--3--3-3--3--3-3--3--3-3--3-3--3--0--0--0-0--0--0-0--0--0-0--0-0--0--|


e-------------------------------------------------------------|
b-------------------------------------------------------------|
g--4--4--4--4--4--4--4--4\------------------------------------|
d--5--5--5--5--5--5--5--5\--4-4-\-4-5-2-4-4--x-x-x-x-x-x-x-x--|
a--5--5--5--5--5--5--5--5\--4-4-\-4-5-2-4-4--x-x-x-x-x-x-x-x--|
e--3--3--3--3--3--3--3--3\--2-2-\-2-3-0-2-4--x-x-x-x-x-x-x-x--|



Chorus:

e--2--2--2--2--3--3--3--3--0--0--0--0--2--2--2--2--|
b--3--3--3--3--3--3--3--3--2--2--2--2--3--3--3--3--|
g--4--4--4--4--4--4--4--4--2--2--2--2--4--4--4--4--|
d--4--4--4--4--5--5--5--5--2--2--2--2--4--4--4--4--| x2
a--2--2--2--2--5--5--5--5--0--0--0--0--2--2--2--2--|
e--------------3--3--3--3--------------------------|



Post Chorus: Rythym guitar plays chorus

Lead
e--------------------------7-5~---7--7\5----7---7-------------|
b----------8-7~--------5-7-8-7~---7--7\5----7-----10p7--------|
g------6-7---------/7--6-7--------7--7\6----7----------9h7----|
d--/9--------------/9-------------9--9\7----9--------------9--|
a-------------------------------------------9-----------------|
e-------------------------------------------7-----------------|


Verse


Lead during verse
e----------------------------------------------|
b----------------------------------------------|
g--9^^v-7-------9^^v-7-------9^^v-7------------|
d---------9~-----------9~-----------9~---7-9~--|
a----------------------------------------------|
e----------------------------------------------|


Pre Chorus

Chorus

Post Chorus


Bridge:

e----------------------------------------------------|
b----------------------------------------------------|
g----------------------------------------------------|
d-----2--2~-------2--2~-------2--2~--7--9-10-9--5-4--| x3
a--2---------------------------------x--x-x--x--x-x--|
e--0---------0-2---------0-3---------5--7-8--7--3-2--|


e------------------------------------------------------|
b------------------------------------------------------|
g------------------------------------------------------|
d-----2--2~-------2--2~-------2--2~--7-7-7-7-7-7-------|
a--2---------------------------------7-7-7-7-7-7--etc--|
e--0---------0-2---------0-3---------5-5-5-5-5-5-------|


e------------------------------------------------------------------------|
b-------------------------------------3--3--3-3--3--3-3--3--3-3--3-3--3--|
g--4--4--4-4--4--4-4--4--4-4--4-4--4--1--1--1-1--1--1-1--1--1-1--1-1--1--|
d--5--5--5-5--5--5-5--5--5-5--5-5--5--2--2--2-2--2--2-2--2--2-2--2-2--2--| x2
a--5--5--5-5--5--5-5--5--5-5--5-5--5--2--2--2-2--2--2-2--2--2-2--2-2--2--|
e--3--3--3-3--3--3-3--3--3-3--3-3--3--0--0--0-0--0--0-0--0--0-0--0-0--0--|


e--14--12--10--9--------------------------|
b---x---x---x--x--------------------------|
g--11---9---7--6--------------------------|
d--12--11---9--7--4-4-\-4-5-2-4-4----4-4--|
a-----------------4-4-\-4-5-2-4-4----4-4--|
e-----------------2-2-\-2-3-0-2-2----2-2--|



Chorus

Post Chorus

Outro:

e----------------------|
b----------------------|
g--4-------------------|
d--x--4--5--7--9--10---|
a--2--x--x--x--x--x----|
e-----2--3--5--7--8----|    

Added On December 12th, 2013

SHARE

Comments

blog comments powered by Disqus

VERSIONS

ADVERTISEMENT