The Police Tabs

Friends

1 versions

TAB

            Artist : The Police
Song : Friends
Album : Single b-side to De Do Do Do, De Da Da Da
Written by : Andy Summers

Hope this is right, any corrections welcome. It sounds as if Sting's bass is tuned 
slightly up.

Verse
G|------------------|
D|--7---------------|
A|------------------|
E|5---55-0-2-3-4-5--|

Pre Chorus

G|------------------|
D|------------------|
A|------------------|
E|---3----3---------|

Chorus

G|------------------|
D|-----------------*| about 6 times
A|-----------------*|
E|2-2-2-2-2-2-2-2-2-|

G|------------------|
D|-----------------*| about 4 times
A|-----------------*|
E|5-5-5-5-5-5-5-5-5-|

G|------------------|
D|-----------------*| about 4 times
A|-----------------*|
E|7-7-7-7-7-7-7-7-2-|    

Added On December 16th, 2013

SHARE

Comments

blog comments powered by Disqus

ADVERTISEMENT