The Red Jumpsuit Apparatus Tabs

Cat And Mouse

2 versions

TAB

            Cat And Mouse Tab by The Red Jumpsuit Apparatus


Hey guys. This is my first tab. I'm pretty sure it is 100% correct. This is Cat and 
One of The Red Jumpsuit Apparatus better songs. The lyrics are great. It is in standard 
This is a very slow song. Most everything is half notes or 2 beats. Here are the tabs.

2 measures of rests

Intro
|-----------|
|-----------|
|-0---3-----|x2
|---3-------|

Verse
|-----------|
|-----------|
|-0---3-----|x4
|---3-------|

Chorus
|-----------| |-----------|
|-----------| |-----------|
|-0----3----| |-----------|
|-----------| |-1---------|

Pre-Verse
|-----------|
|-----------|
|--3--3--3--|
|-----------|

Repeat Verse

Repeat Chorus

Bridge
|-----------|   |-----------| |-----------|
|-----------|   |-----------| |-----------|
|-----------|x2 |-0----3----| |-----------|
|-3----1----|   |-----------| |-1---------|

Repeat Chorus

2 measures of rests

|-----------|
|-----------|
|-0---3-----|x2
|---3-------|

end on
|-----------|
|-----------|
|-----3-----|
|-----------|

these tabs are just simply put so you know what notes to play. there are different 
that i was just too lazy to put in. just listen and you can figure out the rythms and the 
of the notes. have fun playing this song. the red jumpsuit rocks!!

JumpsuitBassist    

Added On December 12th, 2013

SHARE

Comments

blog comments powered by Disqus

VERSIONS

ADVERTISEMENT