The Red Jumpsuit Apparatus Tabs

In Fates Hands

7 versions

TAB

            Song: In Fate’s Hands
Artist: The Red Jumpsuit Apparatus
Album: Don’t You Fake It
Tabbed By: durkn025

Standard Tuning


The First part is Guitar I. After the end of Guitar I, I will show you Guitar II. Some 
of Guitar II are the same and aren’t required but I filled it in so it wouldn’t be 
and everything would be the same length.

Any corrections please contact at: durkn025@comast.net,   durkn025@yahoo.com


Guitar I


Intro:
e|--------------|
B|--------------|
G|5--8-8-8----3-|
D|---------6----|
A|3--6-6-6----1-|
E|---------4----|

e|---------------------------------------------------|
B|---------------------------------------------------|
G|3/5-5-5-5-5—-8/5-5-5-5-5--3/5-5-5-5-5—-3/5-5-8-8-8-|
D|---------------------------------------------------|
A|1/3-3-3-3-3—-6/3-3-3-3-3—-1/3-3-3-3-3—-1/3-3-6-6-6-|
E|---------------------------------------------------|

e|------------|    e|----|
B|------------|    B|-11-|
G|------------|    G|-12-|
D|5/6-6-6-6-6—| x3 D|----|  x6
A|------------|    A|-10-|
E|5/6-6-6-6-6—|    E|----|


Verse:

e|---------------------------------------------------------------|
B|---------------------------------------------------------------|
G|5-5-3-5-5-5-5-5-5-5-7-7-7-7-7-7-7-8-8-8-8-8-8-8-10101010101010-|
D|---------------------------------------------------------------| [Repeat]
A|3-3-1-3-3-3-3-3-3-3-5-5-5-5-5-5-5-6-6-6-6-6-6-6-8-8-8-8-8-8-8--|
E|---------------------------------------------------------------|


Chorus:

e|--------|----|----------------|--------|----|--------------|
B|--------|----|----------------|--------|----|--------------|
G|5-5-3-5-|----|5-5-5-5-8-8-8-8-|--------|----|--------------|
D|--------|-x3-|----------------|6-6-5-6-|-x3-|6-6-5-5-6--6--| [Repeat All]
A|3-3-1-3-|----|3-3-3-3-6-6-6-6-|--------|----|--------------|
E|--------|----|----------------|4-4-3-4-|----|4-4-3-3-4--4--|


Intro:

e|---------------------------------------------------|
B|---------------------------------------------------|
G|3/5-5-5-5-5—-8/5-5-5-5-5--3/5-5-5-5-5—-3/5-5-8-8-8-|
D|---------------------------------------------------|
A|1/3-3-3-3-3—-6/3-3-3-3-3—-1/3-3-3-3-3—-1/3-3-6-6-6-|
E|---------------------------------------------------|

e|------------|    e|----|
B|------------|    B|-11-|
G|------------|    G|-12-|
D|5/6-6-6-6-6—| x3 D|----|  x6
A|------------|    A|-10-|
E|5/6-6-6-6-6—|    E|----|


Verse:

e|--------------------------------------------------------------------|
B|--------------------------------------------------------------------|
G|5-5-3/5-5-5-5-5-5-5-5-7-7-7-7-7-7-7-7-9-9-9-9-9-9-9-9-10101010101010|
D|--------------------------------------------------------------------|
A|3-3-1/3-3-3-3-3-3-3-3-5-5-5-5-5-5-5-6-6-6-6-6-6-6-6-8-8-8-8-8-8-8-8-|
E|--------------------------------------------------------------------|

e|------------------------|
B|------------------------|
G|------------------------|
D|5-5-5-3-5-5-5-3-5-5-5-3-|
A|------------------------|
E|3-3-3-1-3-3-3-1-3-3-3-1-|
  . . . . . . . . . . . .

e|--------------------------------------------------------------------|
B|--------------------------------------------------------------------|
G|5-5-3-5-5-5-5-5-5-5-5-7-7-7-7-7-7-7-7-9-9-9-9-9-9-9-9-10101010101010|
D|--------------------------------------------------------------------|
A|3-3-1-3-3-3-3-3-3-3-3-5-5-5-5-5-5-5-6-6-6-6-6-6-6-6-8-8-8-8-8-8-8-8-|
E|--------------------------------------------------------------------|

Chorus:

e|--------|----|----------------|--------|----|--------------|
B|--------|----|----------------|--------|----|--------------|
G|5-5-3-5-|----|5-5-5-5-8-8-8-8-|--------|----|--------------|
D|--------|-x3-|----------------|6-6-5-6-|-x3-|6-6-5-5-6--6--| [Repeat All]
A|3-3-1-3-|----|3-3-3-3-6-6-6-6-|--------|----|--------------|
E|--------|----|----------------|4-4-3-4-|----|4-4-3-3-4--4--|


Breakdown:
                                     Optional:
*                                    (He plays this right before the solo.)
e|----------------------|              e|----|
B|----------------------|              B|----|
G|----------------------|              G|8-7-|
D|5-8-12-12-108-7-8-8-7-| [Repeat]     D|----|
A|----------------------|              A|6-5-|
E|3-6-10-10-8-6-5-6-6-5-|              E|----|


Bass Solo:  (I wanted a simple guitar solo so I made this)

e|----------------------------------------------------|-----------------|
B|----------------------------------------------------|-----------------|
G|3-5-5-5-5-5-5-7-5-5-5-5-5-5-3-5-5-5-5-5-5-108-7-8-7-|-----------------|
D|----------------------------------------------------|5-6-6-6-6-6-6----|
A|1-3-3-3-3-3-3-5-3-3-3-3-3-3-1-3-3-3-3-3-3-8-6-5-6-5-|--------------x3-|
E|----------------------------------------------------|3-4-4-4-4-4-4----|


Intro:

e|---------------------------------------------------|
B|---------------------------------------------------|
G|3/5-5-5-5-5—-8/5-5-5-5-5--3/5-5-5-5-5—-3/5-5-8-8-8-|
D|---------------------------------------------------|
A|1/3-3-3-3-3—-6/3-3-3-3-3—-1/3-3-3-3-3—-1/3-3-6-6-6-|
E|---------------------------------------------------|

e|------------|    e|----|
B|------------|    B|-11-|
G|------------|    G|-12-|
D|5/6-6-6-6-6—| x3 D|----|  x6
A|------------|    A|-10-|
E|5/6-6-6-6-6—|    E|----|


Chorus

e|--------|----|----------------|--------|----|--------------|
B|--------|----|----------------|--------|----|--------------|
G|5-5-3-5-|----|5-5-5-5-8-8-8-8-|--------|----|--------------|
D|--------|-x3-|----------------|6-6-5-6-|-x3-|6-6-5-5-6--6--| [Repeat All]
A|3-3-1-3-|----|3-3-3-3-6-6-6-6-|--------|----|--------------|
E|--------|----|----------------|4-4-3-4-|----|4-4-3-3-4--4--|


Outro:

e|-----------------------------------------------------------------|
B|-----------------------------------------------------------------|
G|8-8-8-8-8-8-8-8-7-7-7-7-7-7-7-7-8-8-8-8-8-8-8-8-1010101010101010-|
D|-----------------------------------------------------------------|
A|6-6-6-6-6-6-6-6-5-5-5-5-5-5-5-5-6-6-6-6-6-6-6-6-8-8-8-8-8-8-8-8--|
E|-----------------------------------------------------------------|

e|--------------------------------|
B|--------------------------------|
G|8-8-8-8-8-8-8-8-7-7-7-7-7-7-7-7-|
D|--------------------------------|
A|6-6-6-6-6-6-6-6-5-5-5-5-5-5-5-5-|
E|--------------------------------|

e|--------|----|--------------|
B|--------|----|--------------|
G|5-5-3-5-|----|5-5-5-3-5-5-5-|
D|--------|-x3-|--------------|
A|3-3-1-3-|----|3-3-3-1-3-3-3-|
E|--------|----|--------------|

Please again tell me any corrections at: durkn025@comcast.net, durkn025@yahoo.com    

Added On December 16th, 2013

SHARE

Comments

blog comments powered by Disqus