The Script Tabs

We Cry

2 versions

TAB

            eadgbe
finger picked
-------------------------------------------------------------|
------------11-11-10----10--------------16-16-15------15-----|
-------------------------------------------------------------|
---------8---------------------------13----------------------|
------10----10-10-8---8-----8-----15----15-15-13---13-----13-|
-------------------------------------------------------------|

----------------------------------------------------------|
------------11-11-10----10-------------8-8---------10-----|
-------------------------------------8---------10------10-|
---------8------------------------------------------------|
------10----10-10-8---8-----8-----6----6-6--8-------------|
----------------------------------------------------------|

http://www.thescriptmusic.com/news.php    

Added On December 16th, 2013

SHARE

Comments

blog comments powered by Disqus

VERSIONS

ADVERTISEMENT