The Secret Tabs

Bell Of Urgency

1 versions

TAB

            -----------------------------------------------------------------------------
                             BELL OF URGENCY - The Secret
-----------------------------------------------------------------------------

http://www.southernlord.com/band_sec.php

Tuning: Drop C (C G C F A D)

Main Riff - 0:00 to 2:49 (tremolo pick all notes):

D|--------------11------8--|
A|-------------------------|
F|----8----7---------------|
C|-------------------------|
G|-------------------------|
C|-------------------------|

2:49 to 3:12 (tremolo pick all notes):

D|--------------|
A|--------------|
F|-----8------7-|
C|--------------|
G|--------------|
C|--------------|

3:12 to 3:34

D|--------------|
A|--------------|
F|--------------|
C|-----1-----0--|
G|-----1-----0--|
C|-----1-----0--|

Rest of the song:

D|---------------------------------------------------------------------------|
A|---------------------------------------------------------------------------|
F|---------------------------------------------------------------------------|
C|------1---------0--------3--4------------1---0---0-------------------------|
G|------1---------0--------3--4------------1---0---0-------------------------|
C|------1---------0--------3--4--3b---0----1---0---0-------------------------|
                                      .        .   .
************************************

| /   slide up
| \   slide down
| h   hammer-on
| p   pull-off
| ~   vibrato
| +   harmonic
| .   Mute note
| b   Bend
| pb  Pre-bend
| br  Bend release
| pbr Pre-bend release
| brb Bend release bend

************************************    

Added On December 16th, 2013

SHARE

Comments

blog comments powered by Disqus

ADVERTISEMENT