The Sword Tabs

Tres Brujas

1 versions

TAB

            "Tres Brujas"
By: The Sword
Off the album, "Warp Riders" 2010

Tabbed by: Jason Bloss
email: jasonbloss@yahoo.com

C standard tuning
(CFA#D#GC) this is the EXACT tuning. I couldn't put the #'s on the tab because
it severely messed it up.


Riff 1
(0:00-0:09)

C|---------------------------------------------------------------------------|
G|---------------------------------------------------------------------------|
D|---------------------------------------------------------------------------|
A|-----------9-9------------9-9------------7-7----------- 9-9----------------|
F|-7h9-7-5/7-9-9--7h9-7-5/7-9-9------5-7/9-7-7--7h9-7-5/7-9-9----------------|
C|-----------7-7------------7-7--5h7-------5-5------------7-7----------------|

Riff 2 x4
(0:10-0:44)

C|-------------------------------------------------------------------------|
G|-------------------------------------------------------------------------|
D|------------------------------------------------------------------ 7-----|
A|-7/9-9-9-7/9-9-9-7/9-9-9-7-9-----------7-9-9-9-7-9-9-9-7-9-9-9-7-9-7-----|
F|-7/9-9-9-7/9-9-9-7/9-9-9-7-9-----------7-9-9-9-7-9-9-9-7-9-9-9-7-9-5-----|
C|-5/7-7-7-5/7-7-7-5/7-7-7-5-7-1010-8~---5/7-7-7-5/7-7-7-5/7-7-7-5-7-------|

C|-------------------------------------------------------------------------|
G|-------------------------------------------------------------------------|
D|------------------------------------------------------------------ 10----|
A|-7/9-9-9-7/9-9-9-7/9-9-9-7-9-----------7-9-9-9-7-9-9-9-7-9-9-9-7-9-10----|
F|-7/9-9-9-7/9-9-9-7/9-9-9-7-9-----------7-9-9-9-7-9-9-9-7-9-9-9-7-9-8-----|
C|-5/7-7-7-5/7-7-7-5/7-7-7-5-7-1212-10~--5/7-7-7-5/7-7-7-5/7-7-7-5-7-------|

Solo break:(0:18-0:26)

C|-----------------------------------10-12-12b-12--------------------------|
G|----10--------------------------12--------------12-10/-------------------|
D|-9b----9b-7~-----7---7-9b-9-7~-------------------------9p7---7-9---------|
A|-------------7h9---9---------------------------------------9-----9~------|
F|-------------------------------------------------------------------------|
C|-------------------------------------------------------------------------|


The first two times are played exactly as tabbed, however on that very last C#5 chord,
flat it to a C5 on that last part before the chorus.

Riff 3 x2
(0:45-1:02)

C|---------------------------------------------------------------------------|
G|---------------------------------------------------------------------------|
D|-------------------------5-7-----------------------------------------------|
A|-9-9-9-7-9-9-9-7-9-9-9-7-5-7---7--9-9-9-7-9-9-9-7-9-9-9-7-9-10--10-12------|
F|-9-9-9-7-9-9-9-7-9-9-9-7-3-5---7--9-9-9-7-9-9-9-7-9-9-9-7-9-10--10-12------|
C|-7-7-7-5-7-7-7-5-7-7-7-5-----0-5--7-7-7-5-7-7-7-5-7-7-7-5-7- 8---8-10------|

(1:03-1:36)
Repeat Riffs 1 and 2. Listen to the song so you can get the rhythm.

Riff 4 A very quick progression
(1:37-1:41)

C|---------------------------------------------------------------------------|
G|---------------------------------------------------------------------------|
D|-----7-9------------------9-7------------------------------------ ---------|
A|-5-7-7-9-7-10-10-12--7-9--9-7----------------------------------------------|
F|-5-7-5-7-7-10-10-12--7-9--7-5----------------------------------------------|
C|-3-5-----5- 8--8-10--5-7---------------------------------------------------|

(1:42-1:57) is going to be riff 2, but played only single notes on the low E string.
Don't play the chords.

Riff 5
(1:58-2:32)

C|-------------------------------------------------------------------------|
G|-------------------------------------------------------------------------|
D|----------4~---------4~---------------------------------------------- ---|
A|----4~~------4444-------11111111-11111111--------9~~---------------------|
F|--------2-2--4444--2-2-- 9-9-9-9--9-9-9-9--9-----------------------------|
C|-2--2--------2222~--------------------------10-7-------------------------|

C|------------------------------------------------------------|
G|------------------------------------------------------------|Do this very last part twice
D|------------------------------------------------------------|
A|--11111111-11111111--------9~--11111111-11111111------------|
F|-- 9-9-9-9--9-9-9-9--9----------9-9-9-9--9-9-9-9-9P7--------|
C|----------------------10-7--------------------------10-7~~--|

C|---------------------------------------------|
G|---------------------------------------------|
D|---------------------------------------------|
A|----4--4-4-----------------------------------|
F|----4--4-4--eight times----------------------|
C|--0-2--2-2-----------------------------------|

(2:33-3:08) Basically just riff 2 and 3 again, although there is a little solo behind riff 2.
I might add it later.

(3:09-3:34) Just riff 1 again, but played like power chords and extended a bit.
Theres a little change at the end.

C|-------------------------------------------------------------------------|
G|-------------------------------------------------------------------------|
D|-------------------------------------------------------- ----------------|
A|---------------9-7---------7-7/9-9-9-7-9-9--9/7-9-9-7-9-9----------------|
F|-----5-7/9-7-7-----9-7-5-----7/9-9-9-7-9-9--9/7-9-9-7-9-9----------------|
C|-5h7---------------------5---5/7-7-7-5-7-7--7/5-7-7-5-7-7----------------|

(3:35-end of song)
The song just fades out playing that last part. This tab should be 99% accurate, as the song
isn't really difficult, I just didn't have time to tab the solos.
This is all MY tab, so email me if you have
any questions. My email is at the top. Enjoy!    

Added On December 16th, 2013

SHARE

Comments

blog comments powered by Disqus

ADVERTISEMENT