Three Days Grace Tabs

Gone Forever

9 versions

TAB

            Gone Forever Tab by Three Days Grace


ok,so this is just a fix up for jaames tab of it,which has a few mistakes that dont 
right.its my first tab,so,like,comment plz.

ok,srry about that,i sorta screwed up on one bit in the verse,and its just not right without it.
intro(x1)(acoustic)0:00-0:04
e|-----------------------------------------------|
B|-----------------------------------------------|
G|11-11-11-11-11-11-11-11-11-11-11-11-11-11-11-11|
D|-9--9--9--9--9--9--9--9--9--9--9--9--9--9--9-11|
A|-9--9--9--9--9--9--9--9--9--9--9--9--9--9--9--9|
D|-9--9--9--9--9--9--9--9--9--9--9--9--9--9--9--9|

Verse(x2)(0:05-0:17,just acoustic)(0:18-0:29,both guitars)
e|-----------------------------------------------|
B|-----------------------------------------------|
G|11-11-11-11-11-11-11-11-----9--9--9--9--9------|
D|-9--9--9--9--9--9--9--9-----7--7--7--7--7---0--|
A|-9--9--9--9--9--9--9--9-----7--7--7--7--7---0--|
D|-9--9--9--9--9--9--9--9-----7--7--7--7--7---0--|


e|------------------|----------------|
B|------------------|----------------|
G|-7-7-7-7-7-7-7-7--|6-6-6-6-6-6-6-6-|
D|-5-5-5-5-5-5-5-5--|4-4-4-4-4-4-4-4-|
A|-5-5-5-5-5-5-5-5--|4-4-4-4-4-4-4-4-|
D|-5-5-5-5-5-5-5-5--|4-4-4-4-4-4-4-4-|

Pre-Chorus(x1)(0:29-0:35)
e|----------------------0-----|
B|----------------------7-----|
G|-4-4-4-4---6-6-6-6----7-----|
D|-2-2-2-2---4-4-4-4----5-----|
A|-2-2-2-2---4-4-4-4----5-----|
D|-2-2-2-2---4-4-4-4----5-----|


Chorus(x1)(0:35-1:03)
e|----------------------------------------------------------|
B|----------------------------------------------------------|
G|----------------------------------------------------------|
D|-4-4---5-5---0-0-0-0---7-7-7-7---4-4---5-5---0-0-0---7---|
A|-4-4---5-5---0-0-0-0---7-7-7-7---4-4---5-5---0-0-0---7---|
D|-4-4---5-5---0-0-0-0---7-7-7-7---4-4---5-5---0-0-0---7---|

e|----------------------------------------------------------------|
B|----------------------------------------------------------------|
G|----------------------------------------------------------------|
D|-9-9-9-9--5-5-5-5--0-0-0-0--7-7-7-7--5-5-5-5-5-5-5-4-5-7-4-5-7-9|
A|-9-9-9-9--5-5-5-5--0-0-0-0--7-7-7-7--5-5-5-5-5-5-5-4-5-7-4-5-7-9|
D|-9-9-9-9--5-5-5-5--0-0-0-0--7-7-7-7--5-5-5-5-5-5-5-4-5-7-4-5-7-9|

post chorus(just electric)(1:04-1:07)
e|--|
B|--|
G|12|
D|10|x8,and bend as you're playing.
A|10|
D|10|

Verse 2,same as verse 1(1:08-1:32)
Then chorus again(1:32-2:01)
Bridge(x1)(2:02-2:28)
e|-------------------------------------------------|
B|-------------------------------------------------|
G|----------4-4-4-4-4-4-4-4-1111111111111111-------|
D|----------2-2-2-2-2-2-2-2--9-9-9-9-9-9-9-9-------|
A|-5p4p2p0--2-2-2-2-2-2-2-2--9-9-9-9-9-9-9-9-------|
D|----------2-2-2-2-2-2-2-2--9-9-9-9-9-9-9-9-------|

e|-----------------------------|
B|-----------------------------|
G|---4-4-4-4-4-4-4-4-1111--99--|
D|---2-2-2-2-2-2-2-2--9-9--77--|
A|---2-2-2-2-2-2-2-2--9-9--77--|
D|---2-2-2-2-2-2-2-2--9-9--77--|

e|-----------------------------------------------------------------|
B|-----------------------------------------------------------------|
G|---4-4-4-4-4-4-4-4-1111111111111111------------------------------|
D|---2-2-2-2-2-2-2-2--9-9-9-9-9-9-9-9--5-5-5-5-5-5-5--4-5-7-4-5-7-9|
A|---2-2-2-2-2-2-2-2--9-9-9-9-9-9-9-9--5-5-5-5-5-5-5--4-5-7-4-5-7-9|
D|---2-2-2-2-2-2-2-2--9-9-9-9-9-9-9-9--5-5-5-5-5-5-5--4-5-7-4-5-7-9|

 post bridge(2:28-2:39) All acoustic
e|----------------------------------------------|
B|----------------------------------------------|
G|11-11-11-11-11-11-11-11-----9-9-9-9-9-9-9-9---|
D|-9--9--9--9--9--9--9--9-----7-7-7-7-7-7-7-7---|
A|-9--9--9--9--9--9--9--9-----7-7-7-7-7-7-7-7---|
D|-9--9--9--9--9--9--9--9-----7-7-7-7-7-7-7-7---|


e|------------------|-----------|
B|------------------|-----------|
G|-7-7-7-7-7-7-7-7--|6-6--6-6-6-|
D|-5-5-5-5-5-5-5-5--|4-4--4-4-4-|
A|-5-5-5-5-5-5-5-5--|4-4--4-4-4-|
D|-5-5-5-5-5-5-5-5--|4-4--4-4-4-|

Final Chorus(same as others only at the end...)2:39
e|-----------------|                                     |-------------|
B|-----------------|                                     |-------------|
G|-----------------|                                     |-------------|
D|55555555--4-5-7-4|do this 2 times and on the 3rd time..|4-5-7-4-5-7-9| 
A|55555555--4-5-7-4|                                     |4-5-7-4-5-7-9|
D|55555555--4-5-7-4|                                     |4-5-7-4-5-7-9|

Outro(acoustic)(electric is dormant)
e|-------------------------------------------------------------------0---|
B|--------0------0-----------------------0--------0------0-----------0---|
G|------7------7-------7---------2-----7--------7------7------------11---|
D|-----------------------4---2-4-------------------------------------9---|
A|---9-------5-------0-----0---------5-------5-------4--------5---7--9---|
D|-9-------5-------0---------------5-------5-------4--------5---7----9---|

hope these work.
email me @lyrixgurl711@gmail.com if u have any questions.    

Added On December 12th, 2013

SHARE

Comments

blog comments powered by Disqus