Three Days Grace Tabs

Over And Over

6 versions

TAB

            Over And Over Tab by Three Days Grace


Artist : Three Days Grace
Song   : Over & Over
Album  : One-X
Tuning : Drop D

Tabbed by jaames

Intro/verse (acous.) (x6)
E|-------------------------------------------------------------------|
B|-------------------------------------------------------------------|
G|---------2-0-------------2-0--------------2-0-------------2-0------|
D|-----3-------3-------3-------3--------3-------3-------3-------3----|
A|---3---3-------3---3---3-------3----0---0-------0---0---0-------0--|
D|-3---------------3----------------0---------------0----------------|

Pre-chorus (x1)
E|-------------------------------------------------------------|
B|-------------------------------------------------------------|
G|-----------------------------------------------------5~------|
D|-8-8-8-8-8-8-8-8--0-0-0-0-0-0-0-0---3-3-3-3-3-3-3-3--5~--2~--|
A|-8-8-8-8-8-8-8-8--0-0-0-0-0-0-0-0---3-3-3-3-3-3-3-3--3~--2~--|
D|-8-8-8-8-8-8-8-8--0-0-0-0-0-0-0-0---3-3-3-3-3-3-3-3------2~--|

Chorus (x1)
E|------------------------------------------------------------|
B|------------------------------------------------------------|
G|------------------------------------5-5-5-------------------|
D|-7-7-7-7-7-7------3-3-3-3-3-3-------5-5-5-------5-5-5-------|
A|-7-7-7-7-7-7------3-3-3-3-3-3-------3-3-3-------5-5-5-------|
D|-7-7-7-7-7-7------3-3-3-3-3-3-------------------5-5-5-------|

E|------------------------------------------------------|
B|------------------------------------------------------|
G|------------------------------------------------------|
D|-7-7-7-7-7-7------3-3-3-3-3-3-------0-0-0-0-----5-2---|
A|-7-7-7-7-7-7------3-3-3-3-3-3-------0-0-0-0-----5-2---|
D|-7-7-7-7-7-7------3-3-3-3-3-3-------0-0-0-0-----5-2---|

Bridge (x2)
E|----------------------------------------------------|
B|----------------------------------------------------|
G|11-11-11-11-11-11-11-11---11-11-11-11-11-11-11-11---|
D|11-11-11-11-11-11-11-11---11-11-11-11-11-11-11-11---|
A|-9--9--9--9--9--9--9--9----0--0--0--0--0--0--0--0---|
D|-9--9--9--9--9--9--9--9----0--0--0--0--0--0--0--0---|

                                    2nd time end w/ this chord
E|-----------------------------------------|-------|
B|-----------------------------------------|-------|
G|11-11-11-11-11-11-11-11---11-11-11----9--|---7---|
D|11-11-11-11-11-11-11-11---11-11-11----9--|---7---|
A|-9--9--9--9--9--9--9--9----0--0--0----7--|---5---|
D|-9--9--9--9--9--9--9--9----0--0--0----7--|---5---|

And thats it, a very easy song to play.    

Added On December 12th, 2013

SHARE

Comments

blog comments powered by Disqus