Tokio Hotel Tabs

Forgotten Children

1 versions

TAB

            Artist: Tokio Hotel
Song: Forgotten Children -  Vergessene Kinder
Album: Scream - Zimmer 483
Tab by: kia

INTRO:

|-----------|-----------|-----------|-----------|
|---3-----3-|---3-----3-|---3-----3-|---3-----3-|
|-----------|-----------|-----------|-----------|
|-5---5-----|-5---5-----|-1---1-----|-1---0-----|
|-----------|-----------|-----------|-----------|
|-----------|-----------|-----------|-----------|

[Just a normal day..]

|-----------|-----------|-----------|-----------|
|---3-----3-|---3-----3-|---3-----3-|---3-----3-|
|-----------|-----------|-----------|-----------|
|-5---5-----|-5---5-----|-1---1-----|-1---0-----|
|-----------|-----------|-----------|-----------|
|-----------|-----------|-----------|-----------| x3

[To many of them out there..]

|-----------|-----------|-----------|---------1-|
|---3-----3-|---3-----3-|---3-----3-|---3-------|
|-----------|-----------|-----------|-----------|
|-5---5-----|-5---5-----|-1---1-----|-3---3-----|
|-----------|-----------|-----------|-----------|
|-----------|-----------|-----------|-----------|

PRE CHORUS:

[Lost & so alone..]

|-------------|-------------|-------------|---------------|
|-------------|-------------|-------------|---------------|
|-------------|-------------|-------------|---------3---3-|
|-------5-----|-------5-----|-------5-----|-------3-------|
|-4---------6-|-----------6-|-----------6-|-1-------------|
|-------------|-4-----------|-6-----------|---------------|

[Left all on their own..]

|-------------|-------------|--------------|---------------|
|-------------|-------------|--------------|---------------|
|-------------|-------------|--------------|---------3---3-|
|-------5-----|-------5-----|-6-------5----|-------3-------|
|-4---------6-|-----------6-|------6-----6-|-1-------------|
|-------------|-4-----------|--------------|---------------|

[We'll never hear a name..]

|-------------|-------------|-------------|---------------|
|-------------|-------------|-------------|---------------|
|-------------|-------------|-------------|---------3---3-|
|-------5-----|-------5-----|-------5-----|-------3-------|
|-4---------6-|-----------6-|-----------6-|-1-------------|
|-------------|-4-----------|-6-----------|---------------|

[Too young to break the chains..]

|-------------|-------------|--------------|---------------|
|-------------|-------------|--------------|---------------|
|-------------|-------------|--------------|---------3---3-|
|-------5-----|-------5-----|-6-------5----|-------3-------|
|-4---------6-|-----------6-|------6-----6-|-1-------------|
|-------------|-4-----------|--------------|---------------|

CHORUS:

[They see, they feel...]

|-------------|-------------|-------------|---------------|
|-------------|-------------|-------------|---------------|
|-------------|-------------|-------------|---------3---3-|
|-------5-----|-------5-----|-------5-----|-------3-------|
|-4---------6-|-----------6-|-----------6-|-1-------------|
|-------------|-4-----------|-6-----------|---------------|

[The're laughing...]

|-------------|-------------|--------------|---------------|
|-------------|-------------|--------------|---------------|
|-------------|-------------|--------------|---------3---3-|
|-------5-----|-------5-----|-6-------5----|-------3-------|
|-4---------6-|-----------6-|------6-----6-|-1-------------|
|-------------|-4-----------|--------------|---------------|

PRE VERSE:

|-----------|-----------|-----------|-----------|
|---3-----3-|---3-----3-|---3-----3-|---3-----3-|
|-----------|-----------|-----------|-----------|
|-5---5-----|-5---5-----|-1---1-----|-1---0-----|
|-----------|-----------|-----------|-----------|
|-----------|-----------|-----------|-----------|

VERSE:

[Eyes without light..]

|-----------|-----------|-----------|-----------|
|---3-----3-|---3-----3-|---3-----3-|---3-----3-|
|-----------|-----------|-----------|-----------|
|-5---5-----|-5---5-----|-1---1-----|-1---0-----|
|-----------|-----------|-----------|-----------|
|-----------|-----------|-----------|-----------| x3

[A life in disguise..]

|-----------|-----------|-----------|---------1-|
|---3-----3-|---3-----3-|---3-----3-|---3-------|
|-----------|-----------|-----------|-----------|
|-5---5-----|-5---5-----|-1---1-----|-3---3-----|
|-----------|-----------|-----------|-----------|
|-----------|-----------|-----------|-----------|

PRE CHORUS:

[Lost & so alone..]

|-------------|-------------|-------------|---------------|
|-------------|-------------|-------------|---------------|
|-------------|-------------|-------------|---------3---3-|
|-------5-----|-------5-----|-------5-----|-------3-------|
|-4---------6-|-----------6-|-----------6-|-1-------------|
|-------------|-4-----------|-6-----------|---------------|

[Left all on their own..]

|-------------|-------------|--------------|---------------|
|-------------|-------------|--------------|---------------|
|-------------|-------------|--------------|---------3---3-|
|-------5-----|-------5-----|-6-------5----|-------3-------|
|-4---------6-|-----------6-|------6-----6-|-1-------------|
|-------------|-4-----------|--------------|---------------|

[We'll never hear a name..]

|-------------|-------------|-------------|---------------|
|-------------|-------------|-------------|---------------|
|-------------|-------------|-------------|---------3---3-|
|-------5-----|-------5-----|-------5-----|-------3-------|
|-4---------6-|-----------6-|-----------6-|-1-------------|
|-------------|-4-----------|-6-----------|---------------|

[Too young to break the chains..]

|-------------|-------------|--------------|---------------|
|-------------|-------------|--------------|---------------|
|-------------|-------------|--------------|---------3---3-|
|-------5-----|-------5-----|-6-------5----|-------3-------|
|-4---------6-|-----------6-|------6-----6-|-1-------------|
|-------------|-4-----------|--------------|---------------|

CHORUS:           INTERLUDE:

|------------|    |-------------|
|------------|    |-------------|
|-5-----8--3-|    |-------------|
|-5--6--8--3-|    |-5-5-5-5-5-5-|
|-3--6--6--1-|    |-5-5-5-5-5-5-|
|----4-------| x2 |-3-3-3-3-3-3-| x4

[It shouldn't really be that way..]

|------------|
|------------|
|----8-------|
|-5--8--8--3-|
|-5--6--8--3-|
|-3-----6--1-|

CHORUS:           END:

[We see...]

|------------|    |-------------|    |---------------------|-------------|
|------------|    |-------------|    |-8-8-8--7-7-7--3-3-3-|-------------|
|-5-----8--3-|    |-------------|    |-8-8-8--7-7-7--3-3-3-|-------------|
|-5--6--8--3-|    |-5-5-5-5-5-5-|    |-8-8-8--7-7-7--3-3-3-|-5-5-5-5-5-5-|
|-3--6--6--1-|    |-5-5-5-5-5-5-|    |---------------------|-5-5-5-5-5-5-|
|----4-------| x4 |-3-3-3-3-3-3-| x2 |---------------------|-3-3-3-3-3-3-|    

Added On December 16th, 2013

SHARE

Comments

blog comments powered by Disqus

ADVERTISEMENT