Tokio Hotel Tabs

In Die Nacht

2 versions

TAB

            -------------------------------------------------------------------------------
			     IN DIE NACHT – Tokio Hotel
-------------------------------------------------------------------------------
Tabbed by: Gibson-girl

Intro
e|---------------------------------------------------------------------------|
B|---------------------------------------------------------------------------|
G|-7/9-9-9/11-11-11-11-5/7-7-7/9-9-9-9-3/5-5-5/7-7-7-7-2-2-14-14-14-14-------|
D|-0-0-0-0--0--0--0--0-0-0-0-0-0-0-0-0-0-0-0-0-0-0-0-0-0-0--0--0--0--0-------|
A|---------------------------------------------------------------------------|
E|---------------------------------------------------------------------------|

Verse
e|---------------------------------------------------------------------------|
B|---------------------------------------------------------------------------|
G|-7/9-9-9/11-11-11-11-5/7-7-7/9-9-9-9-3/5-5-5/7-7-7-7-2-2-14-14-14-14-------|
D|-0-0-0-0--0--0--0--0-0-0-0-0-0-0-0-0-0-0-0-0-0-0-0-0-0-0--0--0--0--0-------|3×
A|---------------------------------------------------------------------------|
E|---------------------------------------------------------------------------|

e|---------------------------------------------------------------------------|
B|---------------------------------------------------------------------------|
G|-7/9-9-9/11-11-11-11-5/7-7-7/9-9-9-9-3/5-5-5/7-7-7-7-2-2-2-2-2-2-----------|
D|-0-0-0-0--0--0--0--0-0-0-0-0-0-0-0-0-0-0-0-0-0-0-0-0-0-0-0-0-0-0-----------|
A|---------------------------------------------------------------------------|
E|---------------------------------------------------------------------------|

Chorus
e|---------333333------------------------------------------------------------|
B|-333333--000000—-33-1111—--------------------------------------------------|
G|-000000--000000--22-2222--—----7/9-9-9/11-11-11-11-------------------------|
D|-222222--000000--22-2222-------0-0-0-0--0--0--0--0-------------------------|
A|-333333--222222------------------------------------------------------------|
E|---------333333------------------------------------------------------------|

e|---------333333------------------------------------------------------------|
B|-333333--000000—-33-1111---------------------------------------------------|
G|-000000--000000--22-2222—--------------------------------------------------|
D|-222222--000000--22-2222---------------------------------------------------|
A|-333333--222222------------------------------------------------------------|
E|---------333333------------------------------------------------------------|

e|---------------------------------------------------------------------------|
B|---------------------------------------------------------------------------|
G|-7/9-9-9/11-11-11-11-5/7-7-7/9-9-9-9-3/5-5-5/7-7-7-7-2-2-14-14-14-14-------|
D|-0-0-0-0--0--0--0--0-0-0-0-0-0-0-0-0-0-0-0-0-0-0-0-0-0-0--0--0--0--0-------|
A|---------------------------------------------------------------------------|
E|---------------------------------------------------------------------------|

Verse
e|---------------------------------------------------------------------------|
B|---------------------------------------------------------------------------|
G|-7/9-9-9/11-11-11-11-5/7-7-7/9-9-9-9-3/5-5-5/7-7-7-7-2-2-14-14-14-14-------|
D|-0-0-0-0--0--0--0--0-0-0-0-0-0-0-0-0-0-0-0-0-0-0-0-0-0-0--0--0--0--0-------|
A|---------------------------------------------------------------------------|
E|---------------------------------------------------------------------------|

e|---------------------------------------------------------------------------|
B|---------------------------------------------------------------------------|
G|-7/9-9-9/11-11-11-11-5/7-7-7/9-9-9-9-3/5-5-5/7-7-7-7-2-2-2-2-2-2-----------|
D|-0-0-0-0--0--0--0--0-0-0-0-0-0-0-0-0-0-0-0-0-0-0-0-0-0-0-0-0-0-0-----------|
A|---------------------------------------------------------------------------|
E|---------------------------------------------------------------------------|

Chorus
e|---------333333------------------------------------------------------------|
B|-333333--000000—-33-1111—--------------------------------------------------|
G|-000000--000000--22-2222--—----7/9-9-9/11-11-11-11-------------------------|
D|-222222--000000--22-2222-------0-0-0-0--0--0--0--0-------------------------|
A|-333333--222222------------------------------------------------------------|
E|---------333333------------------------------------------------------------|
 
e|---------333333----------------2/3-3--22222--2/3-3--22222------------------|
B|-333333--000000—-33-1111-------3---3--33333--3---3--33333------------------|
G|-000000--000000--22-2222-----—-2---2--22222--2---2--22222------------------|
D|-222222--000000--22-2222-------0---0--00000--0---0--00000------------------|
A|-333333--222222------------------------------------------------------------|
E|---------333333------------------------------------------------------------|

Bridge
e|---------333333----------3-------------------------------------------------|
B|-333333--000000--333333--0-------------------------------------------------|
G|-000000--000000--000000--0-------------------------------------------------|
D|-222222--000000--222222--0-------------------------------------------------|
A|-333333--222222--333333--2-------------------------------------------------|
E|---------333333----------3-------------------------------------------------|

e|---------------------------------------------------------------------------|
B|---------------------------------------------------------------------------|
G|-7/9-9-9/11-11-11-11-5/7-7-7/9-9-9-9-3/5-5-5/7-7-7-7-2-2-2-2-2-2-----------|
D|-0-0-0-0--0--0--0--0-0-0-0-0-0-0-0-0-0-0-0-0-0-0-0-0-0-0-0-0-0-0-----------|
A|---------------------------------------------------------------------------|
E|---------------------------------------------------------------------------|

e|---------333333------------------------------------------------------------|
B|-333333--000000—-33-1111—--------------------------------------------------|
G|-000000--000000--22-2222--—----7/9-9-9/11-11-11-11-------------------------|
D|-222222--000000--22-2222-------0-0-0-0--0--0--0--0-------------------------|
A|-333333--222222------------------------------------------------------------|
E|---------333333------------------------------------------------------------|

Chorus
e|---------333333------------------------------------------------------------|
B|-333333--000000—-33-1111—--------------------------------------------------|
G|-000000--000000--22-2222--—----7/9-9-9/11-11-11-11-------------------------|
D|-222222--000000--22-2222-------0-0-0-0--0--0--0--0-------------------------|
A|-333333--222222------------------------------------------------------------|
E|---------333333------------------------------------------------------------|

e|---------333333------------------------------------------------------------|
B|-333333--000000—-33-1111---------------------------------------------------|
G|-000000--000000--22-2222—--------------------------------------------------|
D|-222222--000000--22-2222---------------------------------------------------|
A|-333333--222222------------------------------------------------------------|
E|---------333333------------------------------------------------------------|

e|---------------------------------------------------------------------------|
B|---------------------------------------------------------------------------|
G|-7/9-9-9/11-11-11-11--7/9-9-9/11-11-11-11----------------------------------|
D|-0-0-0-0--0--0--0--0--0-0-0-0--0--0--0--0----------------------------------|
A|---------------------------------------------------------------------------|
E|---------------------------------------------------------------------------|

e|---------------------------------------------------------------------------|
B|---------------------------------------------------------------------------|
G|-7/9-9-9/11-11-11-11-5/7-7-7/9-9-9-9-3/5-5-5/7-7-7-7-2---------------------|
D|-0-0-0-0--0--0--0--0-0-0-0-0-0-0-0-0-0-0-0-0-0-0-0-0-0---------------------|
A|---------------------------------------------------------------------------|
E|---------------------------------------------------------------------------|

===============================================================================    

Added On December 16th, 2013

SHARE

Comments

blog comments powered by Disqus

VERSIONS

ADVERTISEMENT