Tokio Hotel Tabs

Vergessene Kinder

2 versions

TAB

            Vergessene Kinder Tab by Tokio Hotel


[intro]

e:-----------------|-----------------|------------------|-----------------|
B:----3-----3------|----3-----3------|----3-----3-------|----3-----3------|
G:-----------------|-----------------|------------------|-----------------|
D:--5---5----------|--5---5----------|--1---1-----------|--1---0----------|
A:-----------------|-----------------|------------------|-----------------|
E:-----------------|-----------------|------------------|-----------------|

[verse]

N ganz normaler tag
die strasse wird zum grab
die spuren sind verwischt
ne suche gibt es nicht
kalt ist die Nacht
wer friert ist zu schwach 

e:-----------------|-----------------|------------------|-----------------|
B:----3-----3------|----3-----3------|----3-----3-------|----3-----3------|
G:-----------------|-----------------|------------------|-----------------|
D:--5---5----------|--5---5----------|--1---1-----------|--1---0----------|x3
A:-----------------|-----------------|------------------|-----------------|
E:-----------------|-----------------|------------------|-----------------|

niemand wird sie zähl’n
niemand hat sie geseh’n

e:-----------------|-----------------|------------------|----------1------|
B:----3-----3------|----3-----3------|----3-----3-------|----3------------|
G:-----------------|-----------------|------------------|-----------------|
D:--5---5----------|--5---5----------|--1---1-----------|--3---3----------|
A:-----------------|-----------------|------------------|-----------------|
E:-----------------|-----------------|------------------|-----------------|

[pre chorus]

Einsam und verlor’n
unsichtbar gebor’n

e:-----------------|-----------------|------------------|-----------------|
B:-----------------|-----------------|------------------|-----------------|
G:-----------------|-----------------|------------------|----------3---3--|
D:--------5--------|--------5--------|--------5---------|--------3--------|
A:--4---------6----|------------6----|------------6-----|--1--------------|
E:-----------------|--4--------------|--0---------------|-----------------|

beim ersten Schrei erfror’n
Vergessene Kinder

e:-----------------|-----------------|------------------|-----------------|
B:-----------------|-----------------|------------------|-----------------|
G:-----------------|-----------------|------------------|----------3---3--|
D:--------5--------|--------5--------|--6-------5-------|--------3--------|
A:--4---------6----|------------6----|-------6-----6----|--1--------------|
E:-----------------|--4--------------|------------------|-----------------|

name unbekannt
endlos weggerannt

e:-----------------|-----------------|------------------|-----------------|
B:-----------------|-----------------|------------------|-----------------|
G:-----------------|-----------------|------------------|----------3---3--|
D:--------5--------|--------5--------|--------5---------|--------3--------|
A:--4---------6----|------------6----|------------6-----|--1--------------|
E:-----------------|--4--------------|--0---------------|-----------------|

aus der welt verbannt
Vergessene kinder

e:-----------------|-----------------|------------------|-----------------|
B:-----------------|-----------------|------------------|-----------------|
G:-----------------|-----------------|------------------|----------3---3--|
D:--------5--------|--------5--------|--6-------5-------|--------3--------|
A:--4---------6----|------------6----|-------6-----6----|--1--------------|
E:-----------------|--4--------------|------------------|-----------------|

[chorus] (now drum and second guitar enter)

sie sehn
sie fühln
verstehn
genau wie wir

e:-----------------|-----------------|------------------|-----------------|
B:-----------------|-----------------|------------------|-----------------|
G:-----------------|-----------------|------------------|----------3---3--|
D:--------5--------|--------5--------|--------5---------|--------3--------|
A:--4---------6----|------------6----|------------6-----|--1--------------|
E:-----------------|--4--------------|--0---------------|-----------------|

sie lachen
und weinen
wollen Leben
genau wie wir

e:-----------------|-----------------|------------------|-----------------|
B:-----------------|-----------------|------------------|-----------------|
G:-----------------|-----------------|------------------|----------3---3--|
D:--------5--------|--------5--------|--6-------5-------|--------3--------|
A:--4---------6----|------------6----|-------6-----6----|--1--------------|
E:-----------------|--4--------------|------------------|-----------------|

[verse 2]

e:-----------------|-----------------|------------------|-----------------|
B:----3-----3------|----3-----3------|----3-----3-------|----3-----3------|
G:-----------------|-----------------|------------------|-----------------|
D:--5---5----------|--5---5----------|--1---1-----------|--1---0----------|
A:-----------------|-----------------|------------------|-----------------|
E:-----------------|-----------------|------------------|-----------------|

Augen ohne glück
alle träume wurden erstickt
panik vor dem licht
und angst vor jedem gesicht

e:-----------------|-----------------|------------------|-----------------|
B:----3-----3------|----3-----3------|----3-----3-------|----3-----3------|
G:-----------------|-----------------|------------------|-----------------|
D:--5---5----------|--5---5----------|--1---1-----------|--1---0----------|x2
A:-----------------|-----------------|------------------|-----------------|
E:-----------------|-----------------|------------------|-----------------|

schuld die keinen trifft
die zeit heilt nicht

e:-----------------|-----------------|------------------|----------1------|
B:----3-----3------|----3-----3------|----3-----3-------|----3------------|
G:-----------------|-----------------|------------------|-----------------|
D:--5---5----------|--5---5----------|--1---1-----------|--3---3----------|
A:-----------------|-----------------|------------------|-----------------|
E:-----------------|-----------------|------------------|-----------------|

[pre chorus]

[chorus]

genau wie wir (only second guitar)

[pause]

alles sollte anders sein

alles sollte anders sein (only second guitar)

[chorus] x2

ganau wie ihr (only second guitar)


It's my firts tab, it's possible that there is some mistake but I wrote it with my soul.
Comment if you think that there is some mistake.

Sara - Italy
PROUD Tokio Hotel fan    

Added On December 16th, 2013

SHARE

Comments

blog comments powered by Disqus

VERSIONS

ADVERTISEMENT