Tonight Alive Tabs

Wasting Away

2 versions

TAB

            Found this band a few days ago and thy're pretty awesome. This is my first tab so 
cut me some slack. Enjoy!

Intro

|-------------------------------------------------------------------------|
|-------------------------------------------------------------------------|
|-------------------------------------------------------------------------|
|-7.-7.-7.-7.-7.-7.-7.-7.-2.-2.-2.-2.-2.-2.-2.-2.-------------------------|
|-5.-5.-5.-5.-5.-5.-5.-5.-0.-0.-0.-0.-0.-0.-0.-0.-4.-4.-4.-4.-4.-4.-4.-4.-|
|-------------------------------------------------4.-4.-4.-4.-4.-4.-4.-4.-|

|-------------------------|
|-------------------------|
|-------------------------|
|-------------------------|
|-2.-2.-2.-2.-2.-2.-2.-2.-|
|-2.-2.-2.-2.-2.-2.-2.-2.-|

|-------------------------------------------------------------------------|
|-------------------------------------------------------------------------|
|-------------------------------------------------------------------------|
|-7.-7.-7.-7.-7.-7.-7.-7.-2.-2.-2.-2.-2.-2.-2.-2.-------------------------|
|-5.-5.-5.-5.-5.-5.-5.-5.-0.-0.-0.-0.-0.-0.-0.-0.-4.-4.-4.-4.-4.-4.-4.-4.-|
|-------------------------------------------------4.-4.-4.-4.-4.-4.-4.-4.-|

|-------------------------|
|-------------------------|
|-------------------------|
|-------------------------|
|-2~~~~~~~~~~~~~~~~~~~~~~-|
|-2~~~~~~~~~~~~~~~~~~~~~~-|

|-----------------------------------------------------------------|
|-----------------------------------------------------------------|
|-7-7-7-7-7---7-7-7-7-7---9-9-9---11-11-11-11-11---11-11-11-11-11-|
|-----------------------------------------------------------------|
|-5-5-5-5-5---5-5-5-5-5---7-7-7---9--9--9--9--9----9--9--9--9--9--|
|-----------------------------------------------------------------|

|-----------------------------------------------------------------|
|-----------------------------------------------------------------|
|-9-9-9---7-7-7-7-7---7-7-7-7-7---9-9-9---6-6-6-6-6---6-6-4-4-4---|
|-----------------------------------------------------------------|
|-7-7-7---5-5-5-5-5---5-5-5-5-5---7-7-7---4-4-4-4-4---4-4-2-2-2---|
|-----------------------------------------------------------------|

|-------|
|-------|
|-4-4-4-|
|-------|
|-2-2-2-|
|-------|

Verse

|----------------------------------------------------------------------|
|----------------------------------------------------------------------|
|----------------------------------------------------------------------|
|----------------------------------------------------------------------|
|-0.-0.-0.---0.---0.-0.---0.-0.-0.--4.-4.-4.---4.---4.-4.---4.-4.-4.---|
|-0.-0.-0.---0.---0.-0.---0.-0.-0.--4.-4.-4.---4.---4.-4.---4.-4.-4.---|

|----------------------------------------------------------------------|
|----------------------------------------------------------------------|
|----------------------------------------------------------------------|
|----------------------------------------------------------------------|
|-0.-0.-0.---0.---0.-0.---0.-0.-0.--4.-4.-4.---4.---4.-4.---4.-4.-4.---|
|-0.-0.-0.---0.---0.-0.---0.-0.-0.--4.-4.-4.---4.---4.-4.---4.-4.-4.---|

|-------------------|
|-------------------|
|-------------------|
|-------------------|
|-0~~~~~~~~~~--2~~--|
|-0~~~~~~~~~~--2~~--|

Chorus

|-----------------------------------------------------------------|
|-----------------------------------------------------------------|
|-----------------------------------------------------------------|
|-7-7-7-7-7-7-7-7-2-2-2-2-2-2-2-2---------------------------------|
|-5-5-5-5-5-5-5-5-0-0-0-0-0-0-0-0-4-4-4-4-4-4-4-4-2-2-2-2-2-2-2-2-|
|---------------------------------4-4-4-4-4-4-4-4-2-2-2-2-2-2-2-2-|x4

Verse

Same as before, but end with:

|---------------------|
|---------------------|
|---------------------|
|---------------------|
|-4.-4.-4.---2~~~~~~--|
|-4.-4.-4.---2~~~~~~--|

Chorus

Bridge

|-----------------------------------------------------------------|
|-----------------------------------------------------------------|
|-7-7-7-7-7---7-7-7-7-7---9-9-9---11-11-11-11-11---11-11-11-11-11-|
|-----------------------------------------------------------------|
|-5-5-5-5-5---5-5-5-5-5---7-7-7---9--9--9--9--9----9--9--9--9--9--|
|-----------------------------------------------------------------|

|-----------------------------------------------------------------|
|-----------------------------------------------------------------|
|-9-9-9---7-7-7-7-7---7-7-7-7-7---9-9-9---6-6-6-6-6---6-6-4-4-4---|
|-----------------------------------------------------------------|
|-7-7-7---5-5-5-5-5---5-5-5-5-5---7-7-7---4-4-4-4-4---4-4-2-2-2---|
|-----------------------------------------------------------------|

|-------|
|-------|
|-4-4-4-|
|-------|
|-2-2-2-|
|-------|


|-------------------------------------------------------------------------|
|-------------------------------------------------------------------------|
|-------------------------------------------------------------------------|
|-7.-7.-7.-7.-7.-7.-7.-7.-2.-2.-2.-2.-2.-2.-2.-2.-------------------------|
|-5.-5.-5.-5.-5.-5.-5.-5.-0.-0.-0.-0.-0.-0.-0.-0.-4.-4.-4.-4.-4.-4.-4.-4.-|
|-------------------------------------------------4.-4.-4.-4.-4.-4.-4.-4.-|

|-------------------------|
|-------------------------|
|-------------------------|
|-------------------------|
|-2.-2.-2.-2.-2.-2.-2.-2.-|
|-2.-2.-2.-2.-2.-2.-2.-2.-|

|-------------------------------------------------------------------------|
|-------------------------------------------------------------------------|
|-------------------------------------------------------------------------|
|-7.-7.-7.-7.-7.-7.-7.-7.-2.-2.-2.-2.-2.-2.-2.-2.-------------------------|
|-5.-5.-5.-5.-5.-5.-5.-5.-0.-0.-0.-0.-0.-0.-0.-0.-4.-4.-4.-4.-4.-4.-4.-4.-|
|-------------------------------------------------4.-4.-4.-4.-4.-4.-4.-4.-|

|----------------------------|
|----------------------------|
|----------------------------|
|----------------------------|
|-2~~~~~~~~~~~~~~~~~~~~~~2---|
|-2~~~~~~~~~~~~~~~~~~~~~~2---|

Chorus

Outro 

|-----------------------------------------------------------------|
|-----------------------------------------------------------------|
|-7-7-7-7-7---7-7-7-7-7---9-9-9---11-11-11-11-11---11-11-11-11-11-|
|-----------------------------------------------------------------|
|-5-5-5-5-5---5-5-5-5-5---7-7-7---9--9--9--9--9----9--9--9--9--9--|
|-----------------------------------------------------------------|

Done!    

Added On December 16th, 2013

SHARE

Comments

blog comments powered by Disqus

VERSIONS

ADVERTISEMENT