Tool Tabs

Stinkfist

5 versions

TAB

            I haven't really checked but i think this is the only tab online that offers tab for 
the intro and the whole song CORRECT.  This tab sounds perfect to me!

IMPORTANT!  I tried my best to space it so one - is a 32nd note, OMITTING THE FIRST 
 It may not be perfect but i tried.

Weird intro w/dist. USE YOUR THUMB FOR EACH HARMONIC!  This part is kind of confusing so 
and you will get it.
Guitar 1
e|-----------------------------AH--------------------------------|AH
b|------------------------------|--------------------------------|
g|------------------------------2------------------------------2-|
d|-----AH------AH--AH----AH-----------------AH----AH----AH-------|
a|------|-------|---|-----|-|-|--------------|-----|-----|-|-|---|
D|-1b-2-2---2-2-2---2---2-2-2-2---1b---2---2-2-2-2-2---2-2-2-2---|

G1
e|----------------------------AH--------------------------------|
b|-----------------------------|--------------------------------|
g|-----------------------------2--------------------------------|
d|-----AH---AH----AH----AH-----------AH----AH----AH----AH----AH-|
a|------|----|-|---|-----|-|-|--------|-----|-|---|-----|------|
D|-1b-2-2----2-2---2---2-2-2-2---1b---2-2---2-2---2-2---2---2-2-|

G1
e|--------------AH--------------------------------------------------|
b|slapbackdelay--|--|--|--|--|--|-----------------------------------|
g|---------------2--2--2--2--2--2-(2)-------------------------------|
d|----AH----AH------------------------------------------------------|
a|-----|-----|------------------------------------------------------|
D|1b---2---2-2------------------------------------------------------|
G2
e|-------------------------------------------------------------------|
b|-------------------------------------------------------------------|
g|-------------------------------------------------------------------|
d|-------------------------------------------------------------------|
a|---------------------------------5----volume-swell---(5)---b-------|(5)
D|-------------------------------------------------------------------|

VERSE
G1
e|-------------------------------------------------------------------|
b|-------------------------------------------------------------------|
g|-------------------------------------------------------------------|
d|-------------------------------------------------------------------|
a|-------------5------------------5-------------5----------------5---|
D|-2---------------2-b---(2)----------2----2--------2-b---(2)--------|

G1
e|-----------------------------------------------------------------------|
b|-----------------------------------------------------------------------|
g|-----------------------------------------------------------------------|
d|-----------------------------------------------------------------------|
a|-------------5------------------5-----------------5----------------5---|
D|-2---------------2-b---(2)----------2-b---(2)---------2-b---(2)--------|

G1
e|------------------|
b|------------------|
g|------------------| X8
d|------------------|
a|---5----------5---|
D|-2-----2----------|
  PM...............|
G1                    Repeated Part
e|-----------------|-|-----------------|-|
b|-----------------|o|-----------------|o|
g|-----------------|-|-----------------|-| X5
d|-----------------|-|-----------------|-|
a|-------------5---|o|-------------5---|o|
D|-2-2-------------|-|-2-2---2-2-------|-|
  PM...................................

G1
e|----------------------------------|
b|------------------------------0---|
g|------------------------------0---|
d|------------------------------0---|
a|---5----------5-----5-------------|
D|-2-----2----------2-----2---------|
  PM.............................|

Pre-chorus
e|----------------------------------------------------------------|
b|-------------0--------------0-------------------------------0---|
g|-------------0--------------0-------------------------------0---|
d|-2-----------0---2----------0---2-----------0---2-----------0---|
a|-2---------------2--------------2-----------0---2---------------|
D|-2---------------2--------------2-----------0---2---------------|

e|-----------------------------------------------------------------|
b|-------------0-------------------------------0-------------------|
g|-------------0-------------------------------0-------------------|
d|-2-----------0---2-----------0---2-----------0---2---------0-0-0-|
a|-2---------------2-----------0---2---------------2---------0-0-0-|
D|-2---------------2-----------0---2---------------2---------0-0-0-|

Chorus
e|-----------------------------------------------------|
b|-----------------------------------------------------|
g|-----------------------------------------------------|To imediate repeat
d|-2-----2-(2)/--10-----10-----0---0-0---0-0---x-x-2/3-|
a|-2-----2-(2)/--10-----10-----0---0-0---0-0---x-x-2/3-|
D|-2-----2-(2)/--10-----10-----0---0-0---0-0---x-x-2/3-|
Play this riff three times total
Then
e|-------------------------------------------------------|
b|-------------------------------------------------------|
g|-------------------------------------------------------|
d|-2-----2-x-x-10-----10-----0---------------------------|
a|-2-----2-x-x-10-----10-----0-------5---------------b---|
D|-2-----2-x-x-10-----10-----0---------------------------|
                               This is the note at the part where he goes,
                               "and take my hand"
PLAY THE ENTIRE:
Verse
Pre-chorus
Chorus
And then it goes into the quieter Interlude before the solo.
e|-------------------------------------------------------------|
b|-------------------------------------------------------------|
g|-2-----------------------------------------------------------|
d|-2-----------------------------------------------------------|
a|-0-------------------------------5-------7-------5----5-5-b--|
D|-------------3---------------3---5-------5-------5-----------|
   *           *
On the 5 bend it is a half bend and half a measure later it drops to a quarter bend.  
and a half later it goes back to 5 for two measures with feedback and guitar rests for 
measures.
e|--------------------------------  The pick scratch here is done by the
b|-x\\\\\\\\\\\\\\\\\\\\\\\\\\\\\\  left hand muting the strings and the
g|-x\\\\\\\\\\\\\\\\\\\\\\\\\\\\\\  right rubbing the side of the pick on
d|---------------------------------|  the strings while descending down the
a|---------------------------------|  neck.
D|---------------------------------|
  PS
SOLO
let ring  after taking first ending, repeat  and play second ending
e|---0---0---0---0---0---0---0---0---0---0---0---0---0---0---0---0----|
b|-3---3---3---3---3---3---3---3---3---3---3---3---3---3---3---3------|
g|-----------------------------------------------------------------9\-|
d|-----------------------------------------------------------------9\-|
a|-----------------------------------------------------------------7\-|
D|--------------------------------------------------------------------|
three beat rest
first ending                        Secong ending let ring
e|---------------------------------|-0-0-0------0-------------------|
b|-x-x---x-x---x-x-x-x-x-x-x---x-x-|-5-5-5-6----6-------------------|
g|-x-x---x-x---x-x-x-x-x-x-x---x-x-|--------------------------------|
d|---------------------------------|--------------------------------|
a|---------------------------------|--------------------------------|
D|---------------------------------|--------------------------------|

next part let ring                Play this X2
e|---0----0----0-0---0---0---0-0-|---0---0---0---0---0---0---0---0-|
b|-6----6----6-----6---6-6---6-6-|-3---3---3---3---3---3---3---3---|
g|-------------------------------|---------------------------------|
d|-------------------------------|---------------------------------|
a|-------------------------------|---------------------------------|
D|-------------------------------|---------------------------------|

e|--------------------------------------------------------------------|
b|--------------------------------------------------------------------|
g|--------------------------------------------------------------------|
d|--------------------------------------------------------------------|
a|---------------------------------------------------------------0----|
D|-2-2-2-2-2-2-2-002-2-2-2-2-2-2-2-002-2-2-2-2-2-2-2-2-2-2-2-2-2-0----|
   . . . . . . . ... . . . . . . . ... . . . . Ph---------------------|
    Random harmonics are made by moving pick down string#
Now the cool part in my opinion play each part twice
e|---------------------------------|---------------------------------| All
b|-5-----5-5---7---5-5---5-5-------|---------------------------------| Of
g|-4-----4-4---6---4-4---4-4-------|---------------------------------| This
d|-2-----2-2---4---2-2---2-2-0-0---|-0-----------0---0-----------0---| X2
a|---------------------------0-0---|-2-----------0---2-----------0---|
D|---------------------------0-0---|-0-----------0---0-----------0---|
while guitar 1 does the second part, another guitar does this
e|---------------------------------------------|
b|---------------------------------------------|
g|---------------------------------------------| each measure of the second
d|-12-12---12-12-12-12---12-12---12-12-12-12---| part
a|-14-14---14-14-14-12---14-14---14-14-14-12---|
D|---------------------------------------------|

bridge play this X2
e|----------------------------------------------------------------------|
b|----------------------------------------------------------------------|
g|----------------------------------------------------------------------|
d|-12-----------14-----14-14---11---0-0-2-----2-----2-----2-----2---2-2-|
a|-10-----------12-----12-12---9----0-0-2-----2-----2-----2-----2---2-2-|
D|-10-----------12-----12-12---9----0-0-2-----2-----2-----2-----2---2-2-|

e|---------------------------------------|
b|---------------------------------------|
g|---------------------------------------|
d|-12-----12-12-14-14-----14-----11--0-0-|
a|-10-----10-10-12-12-----12-----9---0-0-|
D|-10-----10-10-12-12-----12-----9---0-0-|

e|--------------------------------------------------|
b|--------------------------------------------------|
g|--------------------------------------------------|
d|-9-------9---9---9---9---9---9---9---9---9---9-12-|
a|-7-------7---7---7---7---7---7---7---7---7---7-10-|
D|-7-------7---7---7---7---7---7---7---7---7---7-10-|
   Lower Volume
e|-----------------------------------------|
b|-----------------------------------------|
g|-----------------------------------------|
d|-12-----12-12/14-14-----14-14---11--1111-|
a|-10-----10-10/12-12-----12-12---9---9-9--|
D|-10-----10-10/12-12-----12-12---9---9-9--|
Let ring
e|-0-------0-----0---------0---------------0--------|
b|-0-------0-----0---------0---------------0--------|
g|-0-------0-----0---------0---------------0--------|
d|-9-------9-----9-9---9---9-------9---9---9---12---|
a|-7-------7-----7-7---7---7-------7---7---7---10---|
D|-7-------7-----7-7---7---7-------7---7---7---10---|

e|--------------------------------------|
b|--------------------------------------|
g|--------------------------------------|
d|-12-----12-12-14-14-----------11--0-0-|
a|-10-----10-10-12-12-----------9---0-0-|
D|-10-----10-10-12-12-----------9---0-0-|
                     Raise Volume
Third Pre chorus
e|-------------------------------------------------|
b|-5---------------5---------------5---------------|
g|-4---------------4---------------4---------------|
d|-2---------------2---------------2---------------|
a|-2---------------2---------------2---------------|
D|-2-------x---x-x-2-------x---x-x-2-------x-x-x-x-|

e|---------------------------------|
b|-8-----8---1010----1010107-7-x-x-|
g|-7-----7---9-9-----9-9-9-6-6-x-x-|
d|-5-----5---7-7-----7-7-7-4-4-x-x-|
a|-5-----5---7-7-----7-7-7-4-4-x-x-|
D|-5-----5---7-7-----7-7-7-4-4-x-x-|

e|-------------------------------------------------|
b|-5---------------5---------------5---------------|
g|-4---------------4---------------4---------------|
d|-2---------------2---------------2---------------|
a|-2---------------2---------------2---------------|
D|-2-------x-x-x-x-2-------x---x-x-2-------x-x-x-x-|

e|--------------------------------|
b|-8-----8---1010----1010---7-----|
g|-7-----7---9-9-----9-9\---6-----|
d|-5-----5---7-7-----7-7\---4---0-|
a|-5-----5---7-7-----7-7\---4---0-|
D|-5-----5---7-7-----7-7\---4---0-|

Play a whole chorus but instead of bending the last 5 on the a string, hold it out until 
kicks in.
Thats it! i'm sure it is right so use this tab!
Thanx. Please rate.    

Added On December 16th, 2013

SHARE

Comments

blog comments powered by Disqus

VERSIONS

ADVERTISEMENT