Traditional Tabs

Silent Night

3 versions

TAB

            ----------------------------------------------------------------------------
			     Silent Night - Traditional
----------------------------------------------------------------------------
Tabbed by: Jacob Deal



             repeat as nescesary with 2 measures of rest between each repeat
e|-------------------------------1-----0--0-----------|
B|------------------330--11---3-3-301------1----------|
G|----0-20---0-20----------0----------------0-20------|
D|--------2------2------------------------------20----|
A|------------------------------------------------3---|
E|----------------------------------------------------|    

Added On December 16th, 2013

SHARE

Comments

blog comments powered by Disqus

VERSIONS

ADVERTISEMENT