Traffic Tabs

Sad And Deep As You

1 versions

TAB

            Each verse is followed by another progression of the chords and Fill 1.
The song is in the key of E.

STRUMMING
   Em          G           D           C         C
e|-------0-----------0-----------2-----------0---------0---|
B|---------0-----------0-------3---3-----------1---------1-|
G|---------------------------2-------------0---------0-----|
D|-----2-----------0-------0-------------2---------2-------|
A|---2-----------1---------------------3---------3---------|
E|-0-----------2-------------------------------------------|

Fill 1:
   Em       
e|-------0--------------------0---------------|
B|---------0--------------------0-------------|
G|--------------------------------------------|
D|-----2-----2/4-4-4--------2-----2/4-4-4-----|
A|---2--------------------2-------------------|
E|-0--------------------0-------------------0-|


INTRO
Em
Em G D C
Fill 1

Em               G
Lips that are as warm could be
D                   C     C
Lips that speak too soon
Em               G
Lips that tell a story
D       C            C
Sad and deep as you


Em                   G
Smile that's warm as summer sun
D                   C        C
Smile that gets you through
Em                 G
Smile that tells a story
D       C            C
Sad and deep as you

SOLO

G A B A G F# E  (It's easiest to do these as barre chords, but it doesn't sound quite right)

e|----------------------|
B|--------2/3-0---------|
G|---0-2--------0h2-0---|
D|-2------------------2-|
A|----------------------|
E|----------------------|

G A B A G F# E

e|----------------------|
B|----------------------|
G|---------------0------|
D|-------0-2p0------0-2-|
A|-----2------h2--2-----|
E|-0--------------------|

Fill 1

Em                G
Eyes that are the windows
D                 C     C
Eyes that are the view
Em               G
Eyes that tell a story
D       C            C
Sad and deep as you

Em              G
Tears that are unspoken words
D                  C      C
Tears that are the truth
Em                G
Tears that tell a story
D       C           C
Sad and deep as you    

Added On December 16th, 2013

SHARE

Comments

blog comments powered by Disqus

ADVERTISEMENT