Ulrik Munther Tabs

Requiem Acoustic

1 versions

TAB

            -------------------------------------------------------------------------------
                             Requiem - Ulrik Munther
-------------------------------------------------------------------------------
Tabbed by: LillaMartin
E-mail: RasmusSture@hotmail.se

Hi everyone! 
Im back with a pretty simple "tab" of the acoustic version Requiem - Ulrik Munther

Heres the whole song: https://www.youtube.com/watch?v=OR0Fjqw3ozU

Its not 100% accurate by far. But its a good place to start if you really wanna learn the song! 
First you have to tune ur guitar a bit from the standard

Ur tuning goes from:
eBGDAE 
to
dCGCGD

everything goes down except for ur B string that goes up to a C and leave the G string standard.

His pretty much switching between  E, A, C#m B chords. 

Tuning: dCGCGD

e|---------------------------------------------------------------------------|
B|-2-----2-----0----2--------------------------------------------------------|
G|-0-----0-----1----0--------------------------------------------------------|
D|---------------------------------------------------------------------------|
A|-0-----4-----2-------------------------------------------------------------|
E|------------------0--------------------------------------------------------|

Here is pretty much 95% of the song. And i will show you the intro below 
which will unlock this beautiful song ;)

e|---------------------------------------------------------------------------|
B|--2-----2---1-----1---2---------2-----2--1-----1--2------------------------|
G|-----0---------0------0---2h4---0--0--------0------------------------------|
D|---------------------------------------------------------------------------|
A|--0---------2---------4---------4--------2--------0------------------------|
E|---------------------------------------------------------------------------|

Rest of the song goes pretty much like this with some mix up on the bass notes
and plucking on the B string. But this will get u far! 

e|---------------------------------------------------------------------------|
B|--2-----2---1-----1---2---------2-----2--1-----1--2------------------------|
G|-----0---------0------0---------0--0--------0------------------------------|
D|---------------------------------------------------------------------------|
A|--0---------2---------4---------4--------2--------0------------------------|
E|---------------------------------------------------------------------------|

So this is pretty much all he does except for a solo at the end. 
Good luck and have fun! 

************************************

| /   slide up
| \   slide down
| h   hammer-on
| p   pull-off
| ~   vibrato
| +   harmonic
| x   Mute note
| b   Bend
| pb  Pre-bend
| br  Bend release
| pbr Pre-bend release
| brb Bend release bend

************************************    

Added On July 18th, 2014

SHARE

Comments

blog comments powered by Disqus

ADVERTISEMENT