TAB

            Krang Tab by Under A Nightmare


---------------------------------------------------------------------------
			   KRANG - Under a Nightmare
---------------------------------------------------------------------------
Tabbed by: Vladimir Miraculo
Email: Vladimir_miraculo@yahoo.com

The other UAN tabs on here have some problems, so I thought I'd fix 'em.  If you doubt
me, let this reassure you.  On December 28, 2004, I played with them, filling in for
Marky Madness on rhythm guitar.  I know this crap.  Questions, Comments, email me.

Tuning:C#

Intro
Guitar 1 (Coffin Keenan)
C#|------------------------------|
G#|------------------------------|
E |--7--10--6------7--10--13-----|
B |--7--10--6------7--10--13-----|
F#|--5--8---4------5--8---11-----|
C#|--5--8---4------5--8---11-----|
  |                              |
  |Guitar 2 (Marky Madness)      |
C#|------------------------------|
G#|------------------------------|
E |--7--10--6------7--10--6------|
B |--7--10--6------7--10--6------|
F#|--5--8---4------5--8---4------|
C#|--5--8---4------5--8---4------|


Verse (Both guitars)
C#|-----------4-444444-1-11111111111111--|
G#|--7-777777-4-444444-1-11111111111111--|
E |--7-777777-5-555555-2-22222222222222--|
B |--7-777777-6-666666-3-33333333333333--|
F#|--5-555555-6-666666-3-33333333333333--|
C#|-----------4-444444-1-11111111111111--|


Chorus
Guitar 1 (Coffin Keenan)
C#|----------------------------------------------------------|
G#|----------------------------------------------------------|
E |--7--10--6------7--10--6------7--10--6------7--10--13-----|
B |--7--10--6------7--10--6------7--10--6------7--10--13-----|
F#|--5--8---4------5--8---4------5--8---4------5--8---11-----|
C#|--5--8---4------5--8---4------5--8---4------5--8---11-----|
  |                                                          |
  |Guitar 2 (Marky Madness)                                  |
C#|----------------------------------------------------------|
G#|----------------------------------------------------------|
E |--7--10--6------7--10--6------7--10--6------7--10--6------|
B |--7--10--6------7--10--6------7--10--6------7--10--6------|
F#|--5--8---4------5--8---4------5--8---4------5--8---4------|
C#|--5--8---4------5--8---4------5--8---4------5--8---4------|


Lead (Coffin Keenan, played on Valley of the Scarecrow at beginning of verse riff
second time through, live he normally plays it third time)

C#|----------------------------------------------|
G#|----------------------------------------------|
E |--10~~~~9~~7~~9~~10~~9~~7~~9~~~~10~~~~12~~~~--|
B |----------------------------------------------|
F#|----------------------------------------------|
C#|----------------------------------------------|



Song Structure:
Intro
Verse 4x
Chorus
Verse2x/Lead
verse4x
Chorus
Verse (at the end of the song, they just repeat the verse riff and go crazy until they decide to end)


============================================================================
| /  slide up
| \  slide down
| h  hammer-on
| p  pull-off
| ~  tremolo picking (not speed metal fast, but not strumming)
| +  harmonic
| x  Mute note
=============================================================================    

Added On December 12th, 2013

SHARE

Comments

blog comments powered by Disqus

VERSIONS

ADVERTISEMENT