TAB

            Elva Tab by Unwritten Law


/=slide

intro
e-----------------------------------32------------------------------32--------
b-----------1---1--3--3-------------33---------1---1-3-3------------33--------
g-2/4/2-0-----0---------2/4/2-0------------------0-------2/4/2-0--------------
d-------------------------------222----2/4-0-----------------------222---2/4-0-
a---------3---------------------222----------3------------------222-----------
E-------------------------------000-----------------------------000-----------

verse 2x
e--------------------
b-11111111-----------
g-00000000-----------
d-22222222-22222222--
a-33333333-22222222--
E----------00000000--

chorus   2x                            3x
e---------------7--------7----------------------------------
b-----------------8-------8-8-------------------------------
g-------7777--9------999-------------7--7-777---------------
d-5555--7777--9------999-------------7--7-777-222222--------
a-5555--5555--7------777-------------5--5-555-222222--------
E-3333----------------------------------------000000--------

after that then do this 2x
e------------------------------------
b----1------0-------1----------------
g--0--0----0-0-----0-0---------------
d------2------2-------2--------------
a-0-----0-2----2-3-----3-------------
E------------------------------------
Thats all you need to do to play the whole song.
During the solo just play intro.    

Added On December 12th, 2013

SHARE

Comments

blog comments powered by Disqus

VERSIONS

ADVERTISEMENT