Velvet Revolver Tabs

Headspace

6 versions

TAB

            Headspace Tab by Velvet Revolver


-------------------------------------------------------------------------------
			     Headspace - Velvet Revolver
-------------------------------------------------------------------------------
Tabbed by:Christ_air
Email:Christ_air123@hotmail.com

Tuning:DADGBE

Intro Chords-Listen 2 da song 4 strumming! HA! (Guitar 1/Rhythm Guitar)

e|---------------------------------------------------------------------------|
B|---------------------------------------------------------------------------|
G|---------------------------------------------------------------------------|
D|-----5-------4-------------------------------------------------------------|
A|-----3-------2-------------------------------------------------------------|
E|---------------------------------------------------------------------------|

Main Riff(Guitar 1 and Bass)

e|---------------------------------------------------------------------------|
B|---------------------------------------------------------------------------|
G|---------------------------------------------------------------------------|
D|---------------------------------------------------------------------------|
A|----3/5\3----0--3--0--3--0--3--0--2----------------------------------------|
E|-------------0--3--0--3--0--3--0--2----------------------------------------|

Higher part in background (Guitar 2)

e|---------------------------------------------------------------------------|
B|---------------------------------------------------------------------------|
G|---------------------------------------------------------------------------|
D|------------3---5---6------------------------------------------------------|
A|---3/5\3--0---0---0--------------------------------------------------------|
E|---------------------------------------------------------------------------|


| /  slide up
| \  slide down
| h  hammer-on
| p  pull-off
| ~  vibrato
| +  harmonic
| x  Mute note
============================================================================    

Added On December 16th, 2013

SHARE

Comments

blog comments powered by Disqus

VERSIONS

ADVERTISEMENT