Veruca Salt Tabs

So Weird

1 versions

TAB

            Veruca Salt - So Weird

Sorry it's a little bit vague, but it was So Weird to write down :(
This is pretty much all of it, apart from the solo, which I don't know sorry folks.
Listen to the song to get the patterns.


^ Indicates to bend this chord.
> Indicates slide to the next chord.

Intro
e|---------------------------------------|
B|---------------------------------------|
G|---------------------------------------|
D|-9-9-9-9-9-9-9-9-9-9-9-9-9-9-9-9-9-9---| However many times is needed.
A|---------------------------------------|
E|---------------------------------------|


Verse                
e|----------------------------------------------------------------|
B|-----^^^^^------------------------------------------------------|
G|-88--88888-------------22>44>66>88------------------------------|
D|-99--99999-x3----------33>55>77>99------------------------------|
A|-99--99999-------------33>55>77>99------------------------------|
E|-77--77777-------------11>33>55>77------------------------------|
       ^^^^^                               



Chorus

e|-------------------------------------------------------------------------|
B|-------------------------------------------------------------------------|
G|-8-88--6-66---9--9-9-141414-8-88--6-66>22>44>66>88-----------------------|
D|-9-99--7-77--10-1010-121212-9-99--7-77>33>55>77>99-----------------------|
A|-9-99--7-77--10-1010-121212-9-99--7-77>33>55>77>99-----------------------|
E|-7-77--5-55---8--8-8-101010-7-77--5-55>11>33>55>77-----------------------|

Speak
You're speaking words
But all I ever heard
Is white noise from weird boys

Space
You're spacing out
By the way
What's that face about
It's so weird
It's so weird

You don't know me
You don't own me
You're just passing through my life
You're a stranger
With bad behavior
You're so weird I'm terrified

Back lounge
A chain smoking Charlie Brown
You're busted up
And broken down

So you're so low rent
You're texting vegan sex again
It's so weird
It's so weird

You don't know me
You don't own me
You're just passing through my life
You're a stranger
With bad behavior
You're so weird I'm terrified

Slowly, faintly
Slowly, faintly
Slowly, faintly
Slowly, faintly

You don't know me
You don't own me
You're just passing through my life
You're a stranger
With bad behavior
You're so weird I'm terrified    

Added On December 16th, 2013

SHARE

Comments

blog comments powered by Disqus

ADVERTISEMENT