Vines Tabs

Anysound

4 versions

TAB

            Anysound Tab by Vines


***********************************************************
1. Anysound 

   E   E   E  E  E  E  E  E      E   E   E  E  E  E  E  E   
-----------------------------|-----------------------------|
-----------------------------|-----------------------------|
-----------------x--x--x--x--|-----------------x--x--x--x--|
--10--12--10--7--x--x--x--x--|--10--12--10--7--x--x--x--x--|
--10--12--10--7--x--x--x--x--|--10--12--10--7--x--x--x--x--|
---8--10---8--5--x--x--x--x--|---8--10---8--5--x--x--x--x--|


   E   E   E  E  E  E  E  E      E   E   E  E  E  E  E  E   
-----------------------------|-----------------------------|
-----------------------------|-----------------------------|
-----------------x--x--x-----|-----------------x--x--x--x--|
--10--12--10--7--x--x--x--7--|--10--12--10--7--x--x--x--x--|
--10--12--10--7--x--x--x--7--|--10--12--10--7--x--x--x--x--|
---8--10---8--5--x--x--x--5--|---8--10---8--5--x--x--x--x--|


   E   E   E  E  E  E  E  E      E   E   E  E  E  E  E  E   
-----------------------------|-----------------------------|
-----------------------------|-----------------------------|
-----------------x--x--x-----|-----------------x--x--x--x--|
--10--12--10--7--x--x--x--7--|--10--12--10--7--x--x--x--x--|
--10--12--10--7--x--x--x--7--|--10--12--10--7--x--x--x--x--|
---8--10---8--5--x--x--x--5--|---8--10---8--5--x--x--x--x--|


   E   E   E  E  E  E  E  E      E   E   E  E  E  E  E  E   
-----------------------------|-----------------------------|
-----------------------------|-----------------------------|
-----------------x--x--x-----|-----------------x--x--x--x--|
--10--12--10--7--x--x--x--7--|--10--12--10--7--x--x--x--x--|
--10--12--10--7--x--x--x--7--|--10--12--10--7--x--x--x--x--|
---8--10---8--5--x--x--x--5--|---8--10---8--5--x--x--x--x--|


   E   E   E  E  E  E  E  E      E   E   E  E  E  E  E  E   
-----------------------------|-----------------------------|
-----------------------------|-----------------------------|
-----------------x--x--x-----|-----------------x--x--x--x--|
--10--12--10--7--x--x--x--7--|--10--12--10--7--x--x--x--x--|
--10--12--10--7--x--x--x--7--|--10--12--10--7--x--x--x--x--|
---8--10---8--5--x--x--x--5--|---8--10---8--5--x--x--x--x--|


   E   E   E  E  E  E  E  E      E   E   E  E  E  E  E  E   
-----------------------------|-----------------------------|
-----------------------------|-----------------------------|
-----------------x--x--x-----|-----------------x--x--x--x--|
--10--12--10--7--x--x--x--7--|--10--12--10--7--x--x--x--x--|
--10--12--10--7--x--x--x--7--|--10--12--10--7--x--x--x--x--|
---8--10---8--5--x--x--x--5--|---8--10---8--5--x--x--x--x--|


  E  E  E  E  E  E  E  E     E  E  E  E  E   E   E   E   
--------------------------|-----------------------------|
--------------------------|-----------------------------|
--7--7--7--7--7--7--7-----|-----------------------------|
--7--7--7--7--7--7--7--7--|--7--7--7--7--7--10--10--10--|
--5--5--5--5--5--5--5--7--|--7--7--7--7--7--10--10--10--|
-----------------------5--|--5--5--5--5--5---8---8---8--|


  E  E  E  E  E  E  E  E     E  E  E  E  E   E   E   E   
--------------------------|-----------------------------|
--------------------------|-----------------------------|
--7--7--7--7--7--7--7-----|-----------------------------|
--7--7--7--7--7--7--7--7--|--7--7--7--7--7--10--10--10--|
--5--5--5--5--5--5--5--7--|--7--7--7--7--7--10--10--10--|
-----------------------5--|--5--5--5--5--5---8---8---8--|


  E  E  E  E  E  E  E  E     E  E  E  E  E   E   E   E   
--------------------------|-----------------------------|
--------------------------|-----------------------------|
--7--7--7--7--7--7--7-----|-----------------------------|
--7--7--7--7--7--7--7--7--|--7--7--7--7--7--10--10--10--|
--5--5--5--5--5--5--5--7--|--7--7--7--7--7--10--10--10--|
-----------------------5--|--5--5--5--5--5---8---8---8--|


   E   E   E   E   E   E   E   E      E   E  E   E  E   E  Q     
----------------------------------|-----------------------------|
----------------------------------|-----------------------------|
--10--10--10--10--10--10--10--10--|-----------------------------|
--10--10--10--10--10--10--10--10--|--12--10-----12-----10-------|
---8---8---8---8---8---8---8---8--|--12--10-----12-----10-------|
----------------------------------|--10---8-----10------8-------|


   E   E   E  E  E  E  E  E      E   E   E  E  E  E  E  E   
-----------------------------|-----------------------------|
-----------------------------|-----------------------------|
-----------------x--x--x-----|-----------------x--x--x--x--|
--10--12--10--7--x--x--x--7--|--10--12--10--7--x--x--x--x--|
--10--12--10--7--x--x--x--7--|--10--12--10--7--x--x--x--x--|
---8--10---8--5--x--x--x--5--|---8--10---8--5--x--x--x--x--|


   E   E   E  E  E  E  E  E      E   E   E  E  E  E  E  E   
-----------------------------|-----------------------------|
-----------------------------|-----------------------------|
-----------------x--x--x-----|-----------------x--x--x--x--|
--10--12--10--7--x--x--x--7--|--10--12--10--7--x--x--x--x--|
--10--12--10--7--x--x--x--7--|--10--12--10--7--x--x--x--x--|
---8--10---8--5--x--x--x--5--|---8--10---8--5--x--x--x--x--|


   E   E   E  E  E  E  E  E      E   E   E  E  E  E  E  E   
-----------------------------|-----------------------------|
-----------------------------|-----------------------------|
-----------------x--x--x-----|-----------------x--x--x--x--|
--10--12--10--7--x--x--x--7--|--10--12--10--7--x--x--x--x--|
--10--12--10--7--x--x--x--7--|--10--12--10--7--x--x--x--x--|
---8--10---8--5--x--x--x--5--|---8--10---8--5--x--x--x--x--|


   E   E   E  E  E  E  E  E      E   E   E  E  E  E  E  E   
-----------------------------|-----------------------------|
-----------------------------|-----------------------------|
-----------------x--x--x-----|-----------------x--x--x--x--|
--10--12--10--7--x--x--x--7--|--10--12--10--7--x--x--x--x--|
--10--12--10--7--x--x--x--7--|--10--12--10--7--x--x--x--x--|
---8--10---8--5--x--x--x--5--|---8--10---8--5--x--x--x--x--|


   E   E   E  E  E  E  E  E      E   E   E  E  E  E  E  E   
-----------------------------|-----------------------------|
-----------------------------|-----------------------------|
-----------------x--x--x-----|-----------------x--x--x--x--|
--10--12--10--7--x--x--x--7--|--10--12--10--7--x--x--x--x--|
--10--12--10--7--x--x--x--7--|--10--12--10--7--x--x--x--x--|
---8--10---8--5--x--x--x--5--|---8--10---8--5--x--x--x--x--|


   E   E   E  E  E  E  E  E      E   E   E  E  E  E  E  E   
-----------------------------|-----------------------------|
-----------------------------|-----------------------------|
-----------------x--x--x-----|-----------------x--x--x--x--|
--10--12--10--7--x--x--x--7--|--10--12--10--7--x--x--x--x--|
--10--12--10--7--x--x--x--7--|--10--12--10--7--x--x--x--x--|
---8--10---8--5--x--x--x--5--|---8--10---8--5--x--x--x--x--|


  E  E  E  E  E  E  E  E     E  E  E  E  E   E   E   E   
--------------------------|-----------------------------|
--------------------------|-----------------------------|
--7--7--7--7--7--7--7-----|-----------------------------|
--7--7--7--7--7--7--7--7--|--7--7--7--7--7--10--10--10--|
--5--5--5--5--5--5--5--7--|--7--7--7--7--7--10--10--10--|
-----------------------5--|--5--5--5--5--5---8---8---8--|


  E  E  E  E  E  E  E  E     E  E  E  E  E   E   E   E   
--------------------------|-----------------------------|
--------------------------|-----------------------------|
--7--7--7--7--7--7--7-----|-----------------------------|
--7--7--7--7--7--7--7--7--|--7--7--7--7--7--10--10--10--|
--5--5--5--5--5--5--5--7--|--7--7--7--7--7--10--10--10--|
-----------------------5--|--5--5--5--5--5---8---8---8--|


  E  E  E  E  E  E  E  E     E  E  E  E  E   E   E   E   
--------------------------|-----------------------------|
--------------------------|-----------------------------|
--7--7--7--7--7--7--7-----|-----------------------------|
--7--7--7--7--7--7--7--7--|--7--7--7--7--7--10--10--10--|
--5--5--5--5--5--5--5--7--|--7--7--7--7--7--10--10--10--|
-----------------------5--|--5--5--5--5--5---8---8---8--|


   E   E   E   E   E   E   E   E      E   E  E   E  E   E  Q     
----------------------------------|-----------------------------|
----------------------------------|-----------------------------|
--10--10--10--10--10--10--10--10--|-----------------------------|
--10--10--10--10--10--10--10--10--|--12--10-----12-----10-------|
---8---8---8---8---8---8---8---8--|--12--10-----12-----10-------|
----------------------------------|--10---8-----10------8-------|


  H          Q.      E     E  E   H          E   E   
------------------------|-----8--10br--------8------|
--8b~--------L------10--|--L--------------------10--|
------------------------|---------------------------|
------------------------|---------------------------|
------------------------|---------------------------|
------------------------|---------------------------|


   E  E  E  E  E  E  E  E     E  E  E  Q    Q    E     H.            E  E   
---------------------------|------------------------|----------------------|
---L--8--------------------|------------------------|----------------------|
---------7--5--7--5--------|----------------5----5--|--7b------------7--5--|
---------------------7--5--|--7--5--7--7------------|----------------------|
---------------------------|------------------------|----------------------|
---------------------------|------------------------|----------------------|


  E  E  E  E  H            E   E  E   E  E   E  E   E   
------------------------|------------------------------|
------------------------|--8--10-----10-----10-----13--|
--7--5------------------|------------------------------|
--------7--5--7~--------|------------------------------|
------------------------|------------------------------|
------------------------|------------------------------|


  E   E   E   E   H             E  E  E  E  E  E  E  E   
-----------------------------|--------------------------|
-----13--15--13--15br--------|--------------------------|
-----------------------------|--7--7--7--7--7--7--7-----|
-----------------------------|--7--7--7--7--7--7--7--7--|
-----------------------------|--5--5--5--5--5--5--5--7--|
-----------------------------|-----------------------5--|


  E  E  E  E  E   E   E   E     E  E  E  E  E  E  E  E   
-----------------------------|--------------------------|
-----------------------------|--------------------------|
-----------------------------|--7--7--7--7--7--7--7-----|
--7--7--7--7--7--10--10--10--|--7--7--7--7--7--7--7--7--|
--7--7--7--7--7--10--10--10--|--5--5--5--5--5--5--5--7--|
--5--5--5--5--5---8---8---8--|-----------------------5--|


  E  E  E  E  E   E   E   E     E  E  E  E  E  E  E  E   
-----------------------------|--------------------------|
-----------------------------|--------------------------|
-----------------------------|--7--7--7--7--7--7--7-----|
--7--7--7--7--7--10--10--10--|--7--7--7--7--7--7--7--7--|
--7--7--7--7--7--10--10--10--|--5--5--5--5--5--5--5--7--|
--5--5--5--5--5---8---8---8--|-----------------------5--|


  E  E  E  E  E   E   E   E      E   E   E   E   E   E   E   E   
-----------------------------|----------------------------------|
-----------------------------|----------------------------------|
-----------------------------|--10--10--10--10--10--10--10--10--|
--7--7--7--7--7--10--10--10--|--10--10--10--10--10--10--10--10--|
--7--7--7--7--7--10--10--10--|---8---8---8---8---8---8---8---8--|
--5--5--5--5--5---8---8---8--|----------------------------------|


   E   E  E   E  E   E  Q        E   E   E  E  H           W                 
-----------------------------|--------------------------|-------------------|
-----------------------------|--------------------------|-------------------|
-----------------------------|--------------------------|-------------------|
--12--10-----12-----10-------|--10--12--10--7--L--------|--L----------------|
--12--10-----12-----10-------|--10--12--10--7--L--------|--L----------------|
--10---8-----10------8-------|---8--10---8--5--L--------|--L----------------|


  W                   W                  
-------------------|-------------------||
-------------------|-------------------||
-------------------|-------------------||
--L----------------|--L----------------||
--L----------------|--L----------------||
--L----------------|--L----------------||    

Added On December 16th, 2013

SHARE

Comments

blog comments powered by Disqus

VERSIONS

ADVERTISEMENT