Vintage Trouble Tabs

Jezzebella

1 versions

TAB

            -----------------------------------------------------------------------------
			     Jezzebella - Vintage Trouble
-----------------------------------------------------------------------------

Band Site: http://www.vintagetrouble.com/

Tabbed by: nimrod_hahahaha

Tuning: Standard

Listen to the song to work out timings etc.  A lot of the song is based on this intro riff.

*************************************************************************************************


e|-------5-------------------------------------------------------------------|
B|---6-7----6--------------------------3-------------------------------------|
G|--------7---7---5--5--7--3--4---3-4----3-4---------------5-7---------------|
D|--------------------------------------------5----3---3-5-------------------|
A|-5-------------5--5--------------------------------------------------------|
E|------------------------------3----------------3---3-----------------------|



e|-------5-------------------------------------------------------------------|
B|---6-7----6--------------------------3-------------------------------------|
G|--------7---7---5--5--7--3--4---3-4----3-4---------------------------------|
D|--------------------------------------------5----3---3-2-------------------|
A|-5-------------5--5--------------------------------------5-3---------------|
E|------------------------------3----------------3---3-----------------------|



e|----------------------------------------------------------------------------|
B|-10--x-x-10--10--x--12---x--5-----------------------------------------------|
G|-10--x-x-10--10--x--12---x--5-----------------------------------------------|
D|-10--x-x-10--10--x--12---x--5-----------------------------------------------|
A|----------------------------------------------------------------------------|
E|----------------------------------------------------------------------------|

CHORDS:

D    G

D    G

F     G     C


First tab, hope it helps.  Need more Vintage Trouble tabs on here!    

Added On December 16th, 2013

SHARE

Comments

blog comments powered by Disqus

ADVERTISEMENT