Vit Legion Tabs

National Extremist

1 versions

TAB

            National Extremist By: Vit Legion

Intro:

    D                 F        G
E|--------------------------------------|
B|--------------------------------------|
G|--------------------------------------|
D|--7--7--7--7--7--7--------------------|
A|--5--5--5--5--5--5--3--3--3--5--5--5--|
E|--------------------1--1--1--3--3--3--|

E|-------------------|
B|-------------------|
G|----7--------------|
D|---------3----5----| Tremolo pick the notes
A|-------------------| while slowly bending.
E|-------------------|

Verse:

    D                 F        G
E|--------------------------------------|
B|--------------------------------------|
G|--------------------------------------|
D|--7--7--7--7--7--7--------------------|
A|--5--5--5--5--5--5--3--3--3--5--5--5--|
E|--------------------1--1--1--3--3--3--|

Chorus:

    F        G        D
E|--------------------------------------|
B|--------------------------------------|
G|--------------------------------------|
D|--------------------7--7--7--7--7--7--|
A|--3--3--3--5--5--5--5--5--5--5--5--5--|
E|--1--1--1--3--3--3--------------------| X2

    G  F  E  G  F  E  C    G  F  E  G  F  E  D
E|----------------------------------------------|
B|----------------------------------------------|
G|--7--5--4--7--5--4-------7--5--4--7--5--4--2--|
D|--5--3--2--5--3--2--5----5--3--2--5--3--2--0--|
A|--------------------3-------------------------|
E|----------------------------------------------| X2    

Added On December 16th, 2013

SHARE

Comments

blog comments powered by Disqus

ADVERTISEMENT