Washya Tabs

Degenerate

1 versions

TAB

            -------------------------------------------------------------------------------
                          Degenerate - Washya
-------------------------------------------------------------------------------
Tuning: Drop C (DAFCGC)
Intro
D|---------3---------5---------7---------1-------|
A|-----------------------------------------------|
F|-------5---------7---------9---------3---------|
C|-----3---------5---------7---------1-----------|
G|---3---------5---------7---------1-------33323-|
C|-3---------5---------7---------1---------33323-|
PM . .       . .       . .       . .       ..... 

Verses
D|--------------------------------------------------|
A|--------------------------------------------------|
F|-------5/4-44b-------7/6-66b----------------------|
C|-----2-------------4-------------3----------------|
G|---2-------------4-------------5-----3-2p0-333323-|
C|-2-------------4-------------5-----3-------333323-|
PM . .           . .           . .           ...... 

Chorus
D|------------------------------------------------------|
A|------------------------------------------------------|
F|---------------------------------------333333---------|
C|---------------------------------------111111---------|
G|-0h2222p0h2222-02h3333-00h2p111-111111--------5555333-|
C|-0h2222p0h2222-02h3333-00h2p111-111111--------5555333-|
PM                                              .......    

Added On December 16th, 2013

SHARE

Comments

blog comments powered by Disqus

ADVERTISEMENT