Washya Tabs

Quiver

1 versions

TAB

            -----------------------------------------------------------------------------
              Quiver - Washya
-----------------------------------------------------------------------------
Tuning: Drop D (EBGDAD)
Intro
E|-------------------------------------------------------------|
B|-------------------------------------------------------------|
G|-------------------------------------------------------------|
D|-------------------------------------------------------------|
A|----------------------------------------------------------3~-|
D|-3-00-3-00-3-0-3-0-3-00-3-00-1-0-3-0-1-0-3-00-3-0-3-0-3-0-3~-|
PM * ** * ** * * * * * ** * ** * * * * * * * ** * * * * * * 

Main Riff
E|--------------------------------------------------------------------|
B|--------------------------------------------------------------------|
G|--------------------------3p2------------------------------------6~-|
D|--------------------2h3h5-----5p3p2------------------------4h5h7----|
A|--------------2h3h5-----------------5p2--------------2h3h5----------|
D|-000000000000---------------------------000000000000----------------|
PM ************                           ************ 

E|----------------------------------------|
B|----------------------------------------|
G|--------------6p4p3---------------------|
D|--------------------6p4p3---------------|
A|--------------------------5p3p2---------|
D|-000000000000-------------------00-0000-|
PM ************                   ** **** 

Verses
E|--------------------------------------------------------------------------|
B|--------------------------------------------------------------------------|
G|--------------------------------------------------------------------------|
D|--------------------------------------------77h8--------------------------|
A|-----------5h6-3h5-0h1p0------------5h6-3h5-----------------5h6-3h5-0h1p0-|
D|-000000000---------------0000000000--------------0000000000-5h6-3h5-0h1p0-|
PM *********               **********              **********    

Added On December 16th, 2013

SHARE

Comments

blog comments powered by Disqus

ADVERTISEMENT