Wednesday 13 Tabs

Faith In The Devil

3 versions

TAB

            Faith In The Devil Tab by Wednesday 13



----------------------------|---|------------------------------------|
----------------------------|---|------------------------------------|
--------2-------------------|---|--------2---------------------------|
--------2-------------------|-X3|--------2---------------------------|
-0-2-0--0-5-2-0-2--0-22-0-2-|---|-0-2-0--0-5-2-0-2--0-22-0-2--555-2/-|
-0-2-0----5-2-0-2--0-22-0-2-|---|-0-2-0----5-2-0-2--0-22-0-2--555-2/-|


----------|---|
----------|---|
----------|---|
----------|-X3|
-0-2-0-2/-|---|
-0-2-0-2/-|---|


----------------------------|---|------------------------------------|
----------------------------|---|------------------------------------|
--------2-------------------|---|--------2---------------------------|
--------2-------------------|-X3|--------2---------------------------|
-0-2-0--0-5-2-0-2--0-22-0-2-|---|-0-2-0--0-5-2-0-2--0-22-0-2--555-2/-|
-0-2-0----5-2-0-2--0-22-0-2-|---|-0-2-0----5-2-0-2--0-22-0-2--555-2/-|


--------------------------------------|
--------------------------------------|
--------------------------------------|
--55555555----------------------------|
--33333333-55555555--22-0-2--0-22-0-2-|
-----------55555555--22-0-2--0-22-0-2-|
                                         ------}
--------------------------------------|
--13-------8---------5----------------|
--15b------10b-------7b5~~------------|
--------------------------------------|
--------------------------------------|
--------------------------------------|



--------------------------------------|
--------------------------------------|
--------------------------------------|
--55555555----------------------------|
--33333333-55555555--77777777-55555555|
-----------55555555--77777777-55555555|
                                         ------}
--------------------------------------|
---13------8---------10-------8-------|
---15b-----10b-------12b------10b~~---|
--------------------------------------|
--------------------------------------|
--------------------------------------|



----------------------------|---|------------------------------------|
----------------------------|---|------------------------------------|
--------2-------------------|---|--------2---------------------------|
--------2-------------------|-X3|--------2---------------------------|
-0-2-0--0-5-2-0-2--0-22-0-2-|---|-0-2-0--0-5-2-0-2--0-22-0-2--555-2/-|
-0-2-0----5-2-0-2--0-22-0-2-|---|-0-2-0----5-2-0-2--0-22-0-2--555-2/-|

----------|---|
----------|---|
----------|---|
----------|-X3|
-0-2-0-2/-|---|
-0-2-0-2/-|---|

----------------------------|---|------------------------------------|
----------------------------|---|------------------------------------|
--------2-------------------|---|--------2---------------------------|
--------2-------------------|-X3|--------2---------------------------|
-0-2-0--0-5-2-0-2--0-22-0-2-|---|-0-2-0--0-5-2-0-2--0-22-0-2--555-2/-|
-0-2-0----5-2-0-2--0-22-0-2-|---|-0-2-0----5-2-0-2--0-22-0-2--555-2/-|


--------------------------------------|
--------------------------------------|
--------------------------------------|
--55555555----------------------------|
--33333333-55555555--22-0-2--0-22-0-2-|
-----------55555555--22-0-2--0-22-0-2-|
                                         ------}
--------------------------------------|
--13-------8---------5----------------|
--15b------10b-------7b5~~------------|
--------------------------------------|
--------------------------------------|
--------------------------------------|



--------------------------------------|
--------------------------------------|
--------------------------------------|
--55555555----------------------------|
--33333333-55555555--77777777-55555555|
-----------55555555--77777777-55555555|
                                         ------}
--------------------------------------|
---13------8---------10-------8-------|
---15b-----10b-------12b------10b~~---|
--------------------------------------|
--------------------------------------|
--------------------------------------|


----------------------------|---|------------------------------------|
----------------------------|---|------------------------------------|
--------2-------------------|---|--------2---------------------------|
--------2-------------------|-X3|--------2---------------------------|
-0-2-0--0-5-2-0-2--0-22-0-2-|---|-0-2-0--0-5-2-0-2--0-22-0-2--555-2/-|
-0-2-0----5-2-0-2--0-22-0-2-|---|-0-2-0----5-2-0-2--0-22-0-2--555-2/-|


----------|---|
----------|---|
----------|---|
----------|-X3| (weired guitar effects over the top)
-0-2-0-2/-|---|
-0-2-0-2/-|---|


--------------------------------------|
--------------------------------------|
--------------------------------------|
--55555555----------------------------|
--33333333-55555555--22-0-2--0-22-0-2-|
-----------55555555--22-0-2--0-22-0-2-|
                                         ------}
--------------------------------------|
--13-------8---------5----------------|
--15b------10b-------7b5~~------------|
--------------------------------------|
--------------------------------------|
--------------------------------------|



--------------------------------------|
--------------------------------------|
--------------------------------------|
--55555555----------------------------|
--33333333-55555555--77777777-55555555|
-----------55555555--77777777-55555555|
                                         ------}
--------------------------------------|
---13------8---------10-------8-------|
---15b-----10b-------12b------10b~~---|
--------------------------------------|
--------------------------------------|
--------------------------------------|



----------------------------|----|------------------------------------|
----------------------------|----|------------------------------------|
--------2-------------------|----|--------2---------------------------|
--------2-------------------|-X6?|--------2---------------------------|
-0-2-0--0-5-2-0-2--0-22-0-2-|----|-0-2-0--0-5-2-0-2--0-22-0-2--555-2/-|
-0-2-0----5-2-0-2--0-22-0-2-|----|-0-2-0----5-2-0-2--0-22-0-2--555-2/-|    

Added On December 16th, 2013

SHARE

Comments

blog comments powered by Disqus

VERSIONS

ADVERTISEMENT