Ween Tabs

Spinal Meningitis

1 versions

TAB

            -------------------------------------------------------------------------------
                             SPINAL MENINGITIS - Ween
-------------------------------------------------------------------------------
Tabbed by: Fritz
E-mail:

Tuning: Standard

Intro: Palm muted

e|-------------------------------------------------------------------------------|
B|-------------------------------------------------------------------------------|
G|-------------------------------------------------------------------------------|
D|--4---6---7---6---4------------------------------------------------------------|
A|----------------------7---4---7------------------------------------------------|
E|-------------------------------------------------------------------------------|

Chorus:

e|---------------------------------------------------------------------------|
B|---------------------------------------------------------------------------|
G|-------2-------------------------------------------------------------------|
D|---4---2---2---------------------------------------------------------------|
A|---4---0---2---------------------------------------------------------------|
E|---2-------0---------------------------------------------------------------|

Yeah, that's all. Was pretty surprised to see that there were no free tabs of this song
on here. As you can see, it's really not difficult. All hail Boognish. Enjoy.


************************************    

Added On December 16th, 2013

SHARE

Comments

blog comments powered by Disqus

ADVERTISEMENT