Weezer Tabs

Beverly Hills

10 versions

TAB

            Beverly Hills Tab by Weezer


-------------------------------------------------------------------------------
			     SONG NAME - Band Name
-------------------------------------------------------------------------------
Tabbed by:  HuckleberryGinn
Email:  N/A

This isn't even released yet, but I did my best to tab it from the leaked 
version.  According to their website, there won't be any reworking, so this
should be it.  It's a basic three chord progression, not difficult at all.
I will update with a new version when I get time.

Tuning:  Standard

INTRO (Play 1x)

e|---------------------------------------------------------------------------|
B|---------------------------------------------------------------------------|
G|------3-3---------3-3---------3-3---5-5------------------------------------|
D|3-3---3-3---3-3---3-3---3-3---3-3---5-5------------------------------------|
A|3-3---1-1---3-3---1-1---3-3---1-1---3-3------------------------------------|
E|1-1---------1-1---------1-1------------------------------------------------|

VERSE (Play 2x)

e|---------------------------------------------------------------------------|
B|---------------------------------------------------------------------------|
G|------3-3---------3-3---------3-3---5-5------------------------------------|
D|3-3---3-3---3-3---3-3---3-3---3-3---5-5------------------------------------|
A|3-3---1-1---3-3---1-1---3-3---1-1---3-3------------------------------------|
E|1-1---------1-1---------1-1------------------------------------------------|

CHORUS (Play 4x - On 2nd and 4th times leave out the last A#5 Chord)

e|---------------------------------------------------------------------------|
B|---------------------------------------------------------------------------|
G|------3-3---5-5---3-3------------------------------------------------------|
D|3-3---3-3---5-5---3-3------------------------------------------------------|
A|3-3---1-1---3-3---1-1------------------------------------------------------|
E|1-1------------------------------------------------------------------------|


Solo:  I will update a second version when its ready.  The Chords are the
same as the verse, play twice.

The bass part is basically the main part of the intro and verse.  It's the root
notes for the electric part.  So E 1st fret, A 1st fret, etc.

LYRICS:

First Verse:
Where I come from isn't all that great, my automobile is a piece of crap, and
my friends are just as screwy as me!
I didn't go to boarding schools, preppie girls never looked at me, why should
they, I ain't nobody. got nothing in my pocket!

Chorus:
Beverly Hills, that's where I want to be!  Livin' in Beverly Hills.  Beverly
Hills, livin' like a celebrity.  Livin' in Beverly Hills.  (during the chorus
some girl is saying 'Gimme' all the time)

Second Verse:
Look at all those movie stars, there all so beautiful and clean, when the
housemaids scrub the floors, they get the spaces in between.  I wanna live
a life like that, I wanna be just like a king, take my picture by the pool,
cause im the next big thing.

REPEAT CHORUS

Bridge:
The truth is, I don't stand a chance.  It's something that you're born into, and 
I just don't belong.  

No I don't, I'm just a no class beat down fool, and I will always be that way, 
I might as well enjoy my life and watch the stars play.

REPEAT CHORUS

OUTRO:

Beverly Hills, Beverly Hills, Beverly Hills, Beverly Hills, Livin in Beverly Hills!


| /  slide up
| \  slide down
| h  hammer-on
| p  pull-off
| ~  vibrato
| +  harmonic
| x  Mute note
===============================================================================    

Added On December 16th, 2013

SHARE

Comments

blog comments powered by Disqus