Weezer Tabs

Death and Destruction

4 versions

TAB

            Death And Destruction Tab by Weezer


Tabbed by: Nik Pullias
Email:snbircher@aol.com

This "Death and Destruction" of Weezer's new c.d., "Maladroit". This is probably
there best song on the whole album.  Please note that this is not completly
correct by any measure!  For example the solo you will have to improvise, but I
did give it a shot!

Intro:(clean)
e---------------9--------
B----10-----10-----------
G-------11--------9------
D-(0)--------------------
A------------------------
E------------------------

Fig 1(Distortion)
e------------------------
B------------------------
G------------------------
D--7--5--------7---------
A--7--7--5--7--7---------
E--5-----2--4--5---------

Verse:(clean)2x
e-----------------------------------------------------------------------------
B-----------------------------------------------------------------------------
G---7----7----7---7--------6---6---6---6---------4---4---4---4--4-------------
D---------------------7--------------------7----------------------7-6-6h7p6-4-
A-9----9---9----9---9----7---7---7---7---7-----5---5---5---5------------------
E-----------------------------------------------------------------------------


Chorus:(Distortion)        "..other way" (Riff 1)   
e-----------------------------------------------------------------------------
B-----------------------------------------------------------------------------
G--7--7--6-6--4--4-------------------------6-7-9-6-7-9------------------------
D--7--7--6-6--4--4--4--4-------------6-7-9--------------9-7-9-7-9-7-9-6-------
A--5--5--4-4--2--2--4--4-----------7------------------------------------------
E--5--5--4-4--2--2--2--2------------------------------------------------------


Solo:(w/distortion)    P.M.===============    ======
e-----------------------------------------------------------
B-----------------------------------------------------------
G-2b~~~--1h2p1----------------------------------------------
D---------------4p2----5----4-6-4---------------------------
A-------------------------7-------7-4-7-5-7-4--4------------
E------------------------------------------------7-5-7-4----
    P.M.=====   
e-----------------------------------------------------------
B-----------------------------------------------------------
G-----------------------------------------------------------
D-------------------8b/-----10b/--11~~/---14bbb~~~----------
A-2-------------0r-------0-------------0--------------------
E----5-4-5-4-2----------------------------------------------
(You'll have to improvise most of it, but mainly use palm mutes and it'll be fine)

Outro:(distortion) This part is pretty much based around parts of the intro 

Song Structure w/lyrics:
[1st Verse]:
i cant say
that you love me
so i cry,
and Im hurting
[FIG 1]
[2nd Verse]:
every time,
that i call you
you find some,
way to ditch me
[Chorus]:
so i learn to turn 
and look the 
other way
[w/Riff 1]
[Solo]
[Outro]    

Added On December 16th, 2013

SHARE

Comments

blog comments powered by Disqus

VERSIONS

ADVERTISEMENT