Wild Nothing Tabs

Gemini

1 versions

TAB

            -------------------------------------------------------------------------------
			     GEMINI - Wild Nothing
-------------------------------------------------------------------------------
Tabbed by: Paul
Email: paulkoontzmail@gmail.com

Tuning: Standard

From the 2010 album Gemini by Wild Nothing. This is just the lead guitar part. 
Probably some mistakes in there but it's pretty close. If anybody knows the 
chords for this song, I'd be glad to know them too. Thanks, Paul

Intro/Verse 
e|---------------------------------------------------------------------------|
B|---------------------------------------------------------------------------|
G|---\8-6--6-8-6----44----4--------------------------------------------------|
D|---------------66----66----------------------------------------------------| x2
A|---------------------------------------------------------------------------|
E|---------------------------------------------------------------------------|

e|---------------------------------------------------------------------------|
B|---\7------7---------------------7------7----------------------------------|
G|------8--8---8--66----66-----------8--8---8--66----686---------------------|
D|-------------------99----9----------------------99-------------------------| x2
A|---------------------------------------------------------------------------|
E|---------------------------------------------------------------------------|


Chorus
e|---------------------------------------------------------------------------|
B|---------------------------------------------------------------------------|
G|-------4--4-6\8-8-6-4-66-4-------------------------------------------------|
D|---4-6--6------------------------------------------------------------------|
A|---------------------------------------------------------------------------|
E|---------------------------------------------------------------------------|




************************************

 \   slide down

************************************    

Added On December 16th, 2013

SHARE

Comments

blog comments powered by Disqus

ADVERTISEMENT