William Fitzsimmons Tabs

Funeral Dress

1 versions

TAB

            Tabbed by: Oze
Email: N/A

Tuning: Standard

Ebm    e|--6--    GbSus9   e|--9--     BmajSus4   e|--7--|
       B|--7--             B|--9--                B|--7--|
       G|--8--             G|--11-                G|--8--|
       D|--8--             D|--11-                D|--11-|
       A|--6--             A|--9--                A|--9--|
       E|--x--             E|--x--                E|--7--|


e|---------------------------------------------------------------------------|
B|---------------------------------------------------------------------------|
G|---------------------------------------------------------------------------|
D|-----8-----8--------11-------11-----11-----11-------11-------11------------|
A|--6-----6-----9--9------9-9-------------------------------------------[x3--|
E|---------------------------------7------7------7--7-----7-7----------------|

e|------------------------------------------------------------------------------|
B|------------------------------------------------------------------------------|
G|------------------------------------------------------------------------------|
D|-----8-----8--------11-------11-----11-----11-------11-------10-9-7-----------|
|
A|--6-----6-----9--9------9-9------------------------------------------------|
E|---------------------------------7------7------7--7-----7------------------|

e|---------------------------------------------------------------------------|
B|---------------------------------------------------------------------------|
G|--Ebm---------GbSus9--------------BmajSus4---------------------------------|
D|---------------------------------------------------------------------------|
A|---------------------------------------------------------------------------|
E|---------------------------------------------------------------------------|

I have figure out the picking of the chords, but can't be bothered to put it in. It
hard to decipher, however, each time the riff is repeated the picking is slightly different.
is the base for the whole of the song, fairly simple eh? The final few chords are 
and i have not got as far as that just yet, ill update asap though!

| /  slide up
| \  slide down
| h  hammer-on
| p  pull-off
| ~  vibrato
| +  harmonic
| x  Mute note

http://www.myspace.com/williamfitzsimmons    

Added On December 16th, 2013

SHARE

Comments

blog comments powered by Disqus

ADVERTISEMENT