TAB

            Golgotha Tab by With Blood Comes Cleansing


-------------------------------------------------------------------------------
			     Golgotha - With Blood Comes Cleansing
-------------------------------------------------------------------------------
Tabbed by: Jake Stephens
 www.myspace.com/jake5590

Tuning: Drop C

Intro: ring out with feedback

   Both guitars          notes are played in triplets in a galloping rhythm
D|--------------------------------------------------------|
A|--------------------------------------------------------|
F|--------------------------------------------------------|
C|--------------------------------------------------------|x4
G|-1-1-1--4-4-4--3-3-3--0-0-0--1-1-1--6-6-6--4-4-4--3-3-3-|
C|-.-.-.--.-.-.--.-.-.--.-.-.--.-.-.--.-.-.--.-.-.--.-.-.-|


   Guitar 1     (Guitar 2 plays same chords, only certain ones though)
D|----------------------------|
A|----------------------------|
F|----------------------------|
C|-0--3--2--5--1--4-3-0-1-3-1-|x5
G|-0--3--2--5--1--4-3-0-1-3-1-|
C|-0--3--2--5--1--4-3-0-1-3-1-|
   .  .  .  .  .  . . . . . .

  Both guitars    (this part is hard to distinguish, but its something like this)
D|----------------------------------------------------------------------|
A|----------------------------------------------------------------------|
F|----------------------------------------------------------------------|
C|-0----0--3--0--0---0--0-----------------------------------------------|x4
G|-0----0--3--0--0---0--0----------5--5-5-2--4-4-1----------------------|
C|-0----0--3--0--0---0--0--0-3-4-5-.--.-.-.--.-.-.--0-0-3-5-0-0-1-3-0-0-|
   .    .     .  .   .  .  . . . .                  . . . . . . . . . .

  Guitar 1: ring out open C chord, while Guitar 2 plays this:
D|-----------------------------------------|
A|-----------------------------------------|tremolo picking
F|-----------------------------------------|
C|-----------------------------------------|guitar 2: x5
G|-----------------------------------------|guitar 1: x4
C|-0----3--2--6---5---3--2----5--2--1----4-|

I'm not sure about the short piece that is played before the blast beat part again, but 
anyone finds out, let me know.

Then you just repeat the first piece and then:

   Breakdown x4
D|-----------------------------------------------------|
A|-----------------------------------------------------|
F|-----------------------------------------------------|
C|-3-2-0-1-2-1--------3-2-0-1-2-1--------3-2-0-1-2-1---|
G|-3-2-0-1-2-1--------3-2-0-1-2-1--------3-2-0-1-2-1---|
C|-3-2-0-1-2-1--------3-2-0-1-2-1--------3-2-0-1-2-1---|
   . . . . . .        . . . . . .        . . . . . .

D|-------------------------|
A|-------------------------|
F|-------------------------|
C|-----------------------*-|
G|-----------------5-5-5-3-|
C|-----0-0-0-6-6-6---------|

| *  pinch harmonic
| .  palm-mute
===============================================================================    

Added On December 16th, 2013

SHARE

Comments

blog comments powered by Disqus

VERSIONS

ADVERTISEMENT