Wolfmother Tabs

New Moon Rising

1 versions

TAB

            Artist: Wolfmother
Song: New Moon Rising
Album: Cosmic Egg
Tuning: Standard ( E A D G B e )
Tabbed By: guitartiger

Intro:

(Use of wah pedal throughout riff...)

e|---------------------------|
B|---------------------------|
G|---------------------------|
D|-----0-2b3-0---------------|
A|--0-2-------2--0-2--2------|
E|---------------------------|X2 

e|---------------------------|---------------------------|
B|---------------------------|---------------------------|
G|---------------------------|---------------------------|
D|-----0-2b3-0------0------0-|2b3-0----------------------|
A|--0-2-------2--0-2-2--0-2--|-----2--0-2--2--0-2/-------|
E|---------------------------|---------------------------|

(slide at the end)

Verse 1:

(Drums and Vocals Break)
 
Then...

e|---------------------------|
B|---------------------------|
G|---------------------------|
D|---------------------------|
A|--7-9----------------------|
E|--5-7----------------------|X3

Main Riff:

e|---------------------------|---------------------------|
B|---------------------------|---------------------------|
G|---------------------------|-----------7-9b11-7--------|
D|--/9--7------------------/9|-7------7-9---------9------|
A|-------9--7p9p7-5-7-5------|--9--7-9-------------------|
E|---------------------7--7--|---------------------------|X2

Chorus:

e|---------------------------|---------------------------|
B|---------------------------|------10-12----------------|
G|--------7-7----7-9----7-9--|-11-11---------------------|
D|--9--7-9-9--7-9-9--7-9-----|---------------------------|
A|---------------------------|---------------------------|
E|---------------------------|---------------------------|X2

(Hold the last 12 the second time)

Verse 2: (Guitar 2 lightly strums muted strings throughout verse 2)

(Drums and Vocals Break)
 
Then...

Guitar 1

e|---------------------------|
B|---------------------------|
G|---------------------------|
D|---------------------------|
A|--7-9----------------------|
E|--5-7----------------------|X3

Main Riff:

e|---------------------------|---------------------------|
B|---------------------------|---------------------------|
G|---------------------------|-----------7-9b11-7--------|
D|--/9--7------------------/9|-7------7-9---------9------|
A|-------9--7p9p7-5-7-5------|--9--7-9-------------------|
E|---------------------7--7--|---------------------------|X2

Chorus:

e|---------------------------|---------------------------|
B|---------------------------|------10-12----------------|
G|--------7-7----7-9----7-9--|-11-11---------------------|
D|--9--7-9-9--7-9-9--7-9-----|---------------------------|
A|---------------------------|---------------------------|
E|---------------------------|---------------------------|X2

Solo:

Guitar 1 continues playing the chorus riff while Guitar 2 does this...

e|---------------------------|---------------------------|
B|--17b19-15-----17b19-15----|--17b19-15--------15--15-17|
G|----------16-14---------16-|14--------16-14-16--16-----|
D|---------------------------|---------------------------|
A|---------------------------|---------------------------|
E|---------------------------|---------------------------|

e|---------------------------|---------------------------|
B|--17b19-15--17b19-15-----17|b19-15--------17b19-15-----|
G|----------16--------16-14--|------16-14-16--------16---|
D|---------------------------|---------------------------|
A|---------------------------|---------------------------|
E|---------------------------|---------------------------|

e|---------------------------|
B|-------15--15-17-17b19-15--|
G|--14-16--16----------------|
D|---------------------------|
A|---------------------------|
E|---------------------------|

Intro Riff:

(Use of wah pedal throughout riff...)

e|---------------------------|---------------------------|
B|---------------------------|---------------------------|
G|---------------------------|---------------------------|
D|--2b3-0--------------0-2b3-|0--------------0-2b3-0-----|
A|-------2--0-2--2--0-2------|-2--0-2--2--0-2-------2--0-|
E|---------------------------|---------------------------|

e|---------------------------|---------------------------|
B|---------------------------|---------------------------|
G|---------------------------|---------------------------|
D|--0------0-2b3-0-----------|----0----------------------|
A|-2-2--0-2-------2--0-2--2--|-0-2-----------------------|
E|---------------------------|---------------------------|

(Lower Volume)


e|---------------------------|---------------------------|
B|---------------------------|---------------------------|
G|---------------------------|---------------------------|
D|--2b3-0--------------0-2b3-|0--------------0-2b3-0-----|
A|-------2--0-2--2--0-2------|-2--0-2--2--0-2-------2--0-|
E|---------------------------|---------------------------|

e|---------------------------|---------------------------|
B|---------------------------|---------------------------|
G|---------------------------|---------------------------|
D|----------0-2b3-0----------|----0----------------------|
A|-2--2--0-2-------2--0-2--2-|-0-2-----------------------|
E|---------------------------|---------------------------|X2 

(Last 3 notes, first time only)

Main Riff:

e|---------------------------|---------------------------|
B|---------------------------|---------------------------|
G|---------------------------|-----------7-9b11-7--------|
D|--/9--7------------------/9|-7------7-9---------9------|
A|-------9--7p9p7-5-7-5------|--9--7-9-------------------|
E|---------------------7--7--|---------------------------|

Chorus:

e|---------------------------|---------------------------|
B|---------------------------|------10-12----------------|
G|--------7-7----7-9----7-9--|-11-11---------------------|
D|--9--7-9-9--7-9-9--7-9-----|---------------------------|
A|---------------------------|---------------------------|
E|---------------------------|---------------------------|X2

Riff:

e|---------------------------|
B|---------------------------|
G|---------------------------|
D|--/9--7--------------------|
A|-------9--7p9p7-5-7-5------|
E|---------------------7--7--|

End

ENJOY THIS NEW GREAT SONG BY WOLFMOTHER!! THE WOLFIES ARE BACK!

Rate, Comment, Enjoy    

Added On December 16th, 2013

SHARE

Comments

blog comments powered by Disqus

ADVERTISEMENT