X Is Loaded Tabs

One More Razor

1 versions

TAB

            One More Razor Tab by X Is Loaded


x is loaded - one more razor
tabbed by kevin ryan (xisloaded@hotmail.com)


***  CURRENTLY NOT A FULL TAB, I;VE GOT ABOUT HALFWAY THROUGH BUT HAVENT FOUND TIME TO ***
      FINISH OFF THE CHORUS AND SOLO LEAD. I WILL UPDATE THE TAB AS SOON AS I AM DONE


Intro:
------

Guitar 1

E [---------------------------------------------]
B [-0--0-----0--0-----0--0-----0--0-----0--0--0-]
G [-4--4-x-x-4--4-x-x-4--4-x-x-4--4-x-x-4--4--4-]
D [-6--6-x-x-6--6-x-x-6--6-x-x-6--6-x-x-6--6--6-]
A [-6--6-x-x-6--6-x-x-6--6-x-x-6--6-x-x-6--6--6-]
E [------x-x------x-x------x-x------x-x---------]


Guitar 2

E [------------------------------------------]
B [------------------------------------------]
G [-------13----13~-----13~------------------]
D [-----------------------------12~-----12~--]
A [-11-11----11------11------11------11------]
E [------------------------------------------]



Verse 1
-------

Guitar 1

E [---------------------------------------------]
B [-0--0-----0--0-----0--0-----0--0-----0--0--0-]
G [-4--4-x-x-4--4-x-x-4--4-x-x-4--4-x-x-4--4--4-]
D [-6--6-x-x-6--6-x-x-6--6-x-x-6--6-x-x-6--6--6-]
A [-6--6-x-x-6--6-x-x-6--6-x-x-6--6-x-x-6--6--6-]
E [------x-x------x-x------x-x------x-x---------]


Guitar 2

E [----------------------------------------------------------------------------------------]
B [-------------------------------------------------------------------------------11b12r11-]
G [-------13----13~-----13~-------------------------13----13~-----13~----------------------]
D [-----------------------------12~-----12~-------------------------------12~--------------]
A [-11-11----11------11------11------11-------11-11----11------11------11------11----------]
E [----------------------------------------------------------------------------------------]

E [-----16-------14---------12----------11-------------------------------------------------]
B [--------14-------12---------11----------9---------0----0----0----0----0----0----0----0--]
G [-/16-------15-------13---------13-11------11---16---16---15---15---13---13---15---15----]
D [----------------------------------------------------------------------------------------]
A [----------------------------------------------------------------------------------------]
E [----------------------------------------------------------------------------------------]

E [----------------------------------------------------------------------------------------]
B [-------------------------------------------------------------------------------11b12r11-]
G [-------13----13~-----13~-------------------------13----13~-----13~----------------------]
D [-----------------------------12~-----12~-------------------------------12~--------------]
A [-11-11----11------11------11------11-------11-11----11------11------11------11----------]
E [----------------------------------------------------------------------------------------]

E [-----16-------14---------12----------11---------------------------------------------]
B [--------14-------12---------11----------9---------0----0----0----0----0-------------]
G [-/16-------15-------13---------13-11------11---16---16---15---15---13---15b16r15~---]
D [------------------------------------------------------------------------------------]
A [------------------------------------------------------------------------------------]
E [------------------------------------------------------------------------------------]



Chorus
------

Guitar 1

E5              Db5   Eb5    

Added On December 16th, 2013

SHARE

Comments

blog comments powered by Disqus

ADVERTISEMENT