XPDC Tabs

Hidup Bersama

3 versions

TAB

            Hidup Bersama Tab by Xpdc


Song: Hidup Bersama
by:XPDC
Tabbed by :FiR
Well my friend (bukhary bab) tot me this song... goes like this


E|-------------------------------------------|
B|----------5-5-------------5----------------|
G|------5-7-----7-5-----5-7------------------|
D|--7-7-------------7-7----------------------| x2
A|-------------------------------------------|
E|-------------------------------------------|

E|------|
B|------|
G|------|
D|-7-7--| 
A|-7-7--|
E|-5-5--|

E|----------5-7-8-7-8-7----------------------------------------|
B|--5-5-5-8--------------------5-7-8-7-8-7---------------------|
G|---------------------5-5-5-8---------------------5-7-8-7-8-7-|
D|-----------------------------------------5-5-5-8-------------| 
A|-------------------------------------------------------------|
E|-------------------------------------------------------------|

thats about all that i noe... it may not be totally accurate...    

Added On December 16th, 2013

SHARE

Comments

blog comments powered by Disqus

VERSIONS

ADVERTISEMENT