Xutos E Pontapes Tabs

Nao Sou O Unico

2 versions

TAB

            Nao Sou O Unico Tab by Xutos E Pontapes


Am G
|-0------------------3--5--7--8-7-|-5--3--5-3--1--0-----------------|
|-1-----0--1--3--5---3------------|------------------3--1--0--------|
|-2--2---------------0------------|---------------------------------|
|-2------------------0------------|---------------------------------|
|-0------------------2------------|---------------------------------|
|-0------------------3------------|---------------------------------|


Am G
|-0------------------3--5--7--8-7-|-5--3--5-3--1--0-----------------|
|-1-----0--1--3--5---3------------|------------------3--1--0--------|
|-2--2---------------0------------|---------------------------------|
|-2------------------0------------|---------------------------------|
|-0------------------2------------|---------------------------------|
|-0------------------3------------|---------------------------------|



Am G
Pensas que eu sou um caso isolado
Dm C
Não sou o único a olhar o céu
Am G
A ver os sonhos partirem
Dm C
À espera que algo aconteça


Am G
A despejar a minha raiva
Dm C
A viver as emoções
Am G
A desejar o que não tive
Dm C
Agarrado às tentações


Refrão 1:

F C
E quando as nuvens partirem
Dm A
O céu azul ficará
F C
E quando as trevas se abrirem
Dm
Vais ver o sol brilhará
G
Vais ver o sol brilhará


Refrão 2:

F C
Não! Não sou o único
Dm
(Eu não sou o único)
A
Não sou o único a olhar o céu
F C
Não! Não sou o único
Dm
(Eu não sou o único)
G
Não sou o único a olhar o céu



Am G
|-0------------------3--5--7--8-7-|-5--3--5-3--1--0-----------------|
|-1-----0--1--3--5---3------------|------------------3--1--0--------|
|-2--2---------------0------------|---------------------------------|
|-2------------------0------------|---------------------------------|
|-0------------------2------------|---------------------------------|
|-0------------------3------------|---------------------------------|


Am G
|-0------------------3--5--7--8-7-|-5--3--5-3--1--0-----------------|
|-1-----0--1--3--5---3------------|------------------3--1--0--------|
|-2--2---------------0------------|---------------------------------|
|-2------------------0------------|---------------------------------|
|-0------------------2------------|---------------------------------|
|-0------------------3------------|---------------------------------|



Am G
Pensas que eu sou um caso isolado
Dm C
Não sou o único a olhar o céu
Am G
A ouvir os concelhos dos outros
Dm C
E sempre a cair nos buracos


Am G
A desejar o que não tive
Dm C
Agarrado ao que não tenho
Am G
Não! Não sou o único
Dm C
Não sou o único a olhar o céu


Refrão 1

Refrão 2 x3

Am G Dm C
Am G Dm C
Am G Dm C    

Added On December 16th, 2013

SHARE

Comments

blog comments powered by Disqus

VERSIONS

ADVERTISEMENT