Yellowcard Tabs

Shrink The World

2 versions

TAB

            bY f_sario@yahoo.com

Tuning-{e b g d A D}
Intro Chorus-

If I could then I'd shrink the world tonight so that I would find you and me inside.

|--------------------------------------------------------|
|--------------------------------------------------------|
|-77777777777-7777777777777-7777777777777-7777777777777--|
|-77777777777-7777777777777-7777777777777-7777777777777--|
|-55555555555-5555555555555-5555555555555-5555555555555--|
|--------------------------------------------------------|


Intro Riff
Guitar 1&2

|----------------------------------------------|
|----------------------------------------------|
|----------------------------------------------|
|------9-9-5-5-0-2-2----0-0-7-7-5-5-0-2-2------|
|------9-9-5-5-0-2-2----0-0-7-7-5-5-0-2-2------|
|-9*---9-9-5-5-0-2-2----0-0-7-7-5-5-0-2-2------|

|----------------------------------------------|
|----------------------------------------------|
|----------------------------------------------|
|--0-0-5-5-4-4-0-2-2----0-0-7-7-5-5-0-2-2------|
|--0-0-5-5-4-4-0-2-2----0-0-7-7-5-5-0-2-2------|
|--0-0-5-5-4-4-0-2-2----0-0-7-7-5-5-0-2-2------|

Verse-
Guitar1 2x
|------------------------------------------------------------------------------|x
|------------------------------------------------------------------------------|x
|------------------------------------------------------------------------------|x
|-7-7-7-7-7-7-7-7-7-7-7-7-7-7-7-7-7-7-7-7-7-7-7-7-7-7-7-7-7-7-7-7-7-7-7-7-7----|x
|-5-5-5-5-5-5-5-5-5-5-5-5-5-5-5-5-5-5-5-5-5-5-5-5-5-5-5-5-5-5-5-5-5-5-5-5-5----|x
|------------------------------------------------------------------------------|x


Guitar2 2x
|--------------------------------------|---------------------------------------------|
|--------------------------------------|---------------------------------------------|
|--------------------------------------|---------------------------------------------|
|--------------------------------------|---------------------------------------------|
|-999999999-7777777-777777777--5555555-|-99999999-12-12-10-10-999-777-999-777-55555--|
|--------------------------------------|---------------------------------------------|


Pre Cho- I am missing you

Guitar1
|---------------------------------------|x
|---------------------------------------|x
|---------------------------------------|x
|---------------------------------------|x
|--7-7-7-7-7-7-7-7-7-7-7-7-7-7-7-7------|x
|--7-7-7-7-7-7-7-7-7-7-7-7-7-7-7-7------|x


Guitar2
|-------------------------------------|
|-------------------------------------|
|-------------------------------------|
|-------------------------------------|
|-------------------------------------|
|--7-7-7-7-7-7-7-7-7-7-7-7-7-7-7-7----|


Chorus-
If I could then I'd shrink the world tonight so that I would find you and me inside. Of 
last good scene, a film that changes things. Breaks us, makes us sing, leaves us wondering.

Guitar1
|----------------------------------------------|
|----------------------------------------------|
|--7----------7--------------------------------|
|--7-7-5-5-5--7-7-5-5-5---9-7-5-5-5--9-7-5-5-5-|2x
|--5-7-5-5-5--5-7-5-5-5---9-7-5-5-5--9-7-5-5-5-|
|----7-5-5-5----7-5-5-5---9-7-5-5-5--9-7-5-5-5-|


Guitar2
|----------------------------------------------|
|----------------------------------------------|
|--7-7-7-7-7-7-7-7-7-7-7-7-7-7-7-7-7-7-7-7-7-7-|
|--7--7--7--7--7--7--7--7--7--7--7--7--7--7--7-|2x
|--5--5--5--5--5--5--5--5--5--5--5--5--5--5--5-|
|----------------------------------------------|

Post Chorus


Guitar1 2x
|---------------------------------------|x
|---------------------------------------|x
|---------------------------------------|x
|-7-7-7-7-7-7-7-7-7-7-7-7-7-7-7-7-7-7---|x
|-5-5-5-5-5-5-5-5-5-5-5-5-5-5-5-5-5-5---|x
|---------------------------------------|x


Guitar2 2x
|--------------------------------------|
|--------------------------------------|
|--------------------------------------|
|--------------------------------------|
|-999999999-7777777-777777777--5555555-|
|--------------------------------------|


Guitar3

|---------------------------------|
|---------------------------------|
|---------------------------------|
|---------------------------------|
|---------------------------------|
|-4-4-4--2-2-2-2-2-2--0-0-0-------|


Verse2-
Guitar1 2x
|------------------------------------------------------------------------------|x
|------------------------------------------------------------------------------|x
|------------------------------------------------------------------------------|x
|-7-7-7-7-7-7-7-7-7-7-7-7-7-7-7-7-7-7-7-7-7-7-7-7-7-7-7-7-7-7-7-7-7-7-7-7-7----|x
|-5-5-5-5-5-5-5-5-5-5-5-5-5-5-5-5-5-5-5-5-5-5-5-5-5-5-5-5-5-5-5-5-5-5-5-5-5----|x
|------------------------------------------------------------------------------|x


Guitar2 2x
|--------------------------------------|---------------------------------------------|
|--------------------------------------|---------------------------------------------|
|--------------------------------------|---------------------------------------------|
|--------------------------------------|---------------------------------------------|
|-999999999-7777777-777777777--5555555-|-99999999-12-12-10-10-999-777-999-777-55555--|
|--------------------------------------|---------------------------------------------|


Guitar3

|----------------------------------------------------------|
|----------------------------------------------------------|
|----------------------------------------------------------|
|----------------------------------------------------------|2x
|----------------------------------------------------------|
|-4-4-4--2-2-2-2-2-2--0-0-0--4-4-4--2-2-2-2-2-2--0-0-0-----|

Pre Cho- I am missing you
|----------------------------------------------|
|----------------------------------------------|
|----------------------------------------------|
|----7~----------------------------------------|
|----7~----------------------------------------|
|----7~----------------------------------------|


Repeat Chorus-

Solo-


Guitar1(not sure)

|----------------------------------------------|
|----------------------------------------------|
|----------------------------------------------|
|------9-9-5-5-0-2-2----0-0-7-7-5-5-0-2-2------|
|------9-9-5-5-0-2-2----0-0-7-7-5-5-0-2-2------|
|------9-9-5-5-0-2-2----0-0-7-7-5-5-0-2-2------|


|----------------------------------------------|
|----------------------------------------------|
|----------------------------------------------|
|------9-9-5-5-0-2-2----0-0-7-7-5-5-0-2-2------|
|------9-9-5-5-0-2-2----0-0-7-7-5-5-0-2-2------|
|------9-9-5-5-0-2-2----0-0-7-7-5-5-0-2-2------|

|----------------------------------------------|
|----------------------------------------------|
|----------------------------------------------|
|--0-0-5-5-4-4-0-2-2----0-0-5-5-4-4-0-2-2------|
|--0-0-5-5-4-4-0-2-2----0-0-5-5-4-4-0-2-2------|
|--0-0-5-5-4-4-0-2-2----0-0-5-5-4-4-0-2-2------|

|---------------------------------------------------------------|
|---------------------------------------------------------------|
|---------------------------------------------------------------|
|--0-0-5-5-4-4-0-2-2----0-0-7-7-5-5-0-2-2---0-0-5-5-4-4-0-2-2---|
|--0-0-5-5-4-4-0-2-2----0-0-7-7-5-5-0-2-2---0-0-5-5-4-4-0-2-2---|
|--0-0-5-5-4-4-0-2-2----0-0-7-7-5-5-0-2-2---0-0-5-5-4-4-0-2-2---|


|----------------------------------------------|
|----------------------------------------------|
|----------------------------------------------|
|--0-4-2-0-0-5-4-2-0-0-4-2-0-0-5-4-2-0~--------|
|--0-4-2-0-0-5-4-2-0-0-4-2-0-0-5-4-2-0~--------|
|--0-4-2-0-0-5-4-2-0-0-4-2-0-0-5-4-2-0~--------|

Guitar2
 |    

Added On December 16th, 2013

SHARE

Comments

blog comments powered by Disqus

VERSIONS

ADVERTISEMENT