Youth Group Tabs

Daisychains

1 versions

TAB

            Daisychains Tab by Youth Group


This is my first tab. this song is eay. Just listen to the strumming it's pretty basic.

Tabbed by: jamie

Tuning: standard, capo 2nd

     Intro
e|----2-----3-----2-----2---------------------------------------------------|
B|----3-----3-----3-----3---------------------------------------------------|
G|----2-----2-----2-----2---------------------------------------------------|
D|----0-----0-----0-----0---------------------------------------------------|
A|--------------------------------------------------------------------------|
E|--------------------------------------------------------------------------|

e|----2-----3-----2-----2---------------------------------------------------|
B|----3-----3-----3-----3---------------------------------------------------|
G|----2-----2-----2-----2---------------------------------------------------|
D|----0-----0-----0-----0---------------------------------------------------|
A|--------------------------------------------------------------------------|
E|--------------------------------------------------------------------------|
    verse/chorus
e|----2-----0-----3-----2---------------------------------------------------|
B|----3-----2-----3-----3---------------------------------------------------|
G ----4-----2-----0-----2---------------------------------------------------|
D|----4-----2-----0-----0---------------------------------------------------|
A|----2-----------2---------------------------------------------------------|
E|----2-----------3---------------------------------------------------------|

e|----2-----0-----2-----2---------------------------------------------------|
B|----3-----2-----3-----3---------------------------------------------------|
G|----4-----2-----2-----2---------------------------------------------------|
D|----4-----2-----0-----0---------------------------------------------------|
A|----2---------------------------------------------------------------------|
E|----2---------------------------------------------------------------------|

thats pretty much the whole song.    

Added On December 16th, 2013

SHARE

Comments

blog comments powered by Disqus

ADVERTISEMENT