Yung Wun Tabs

Yung Wun Anthem

1 versions

TAB

            Yung Wun Anthem Tab by Yung Wun


Artist: Yung Wun feat. Jadakiss
Song: Yung Wun Anthem
Album: The Dirtiest Thirsiest

G|----1--3-----------|
D|-1--------4-1------|     1X
A|---------------4/6-|
E|-------------------|

G|----1----1-3--3-4-3-1---|
D|-1-----4--------------1-|     1X
A|------------------------|
E|------------------------|

G|-------1-3----4-3-1---1-3-------------|
D|-1-4-1-----1--------4-------------0-1-|     2X
A|--------------------------1-1-1-3-----|
E|--------------------------------------|

G|----1--3-----------|
D|-1--------4-1----0-|     1X
A|---------------3---|
E|-------------------|

G|-------1-3----4-3-1---1-3-------------|
D|-1-4-1-----1--------4-------------0-1-|     2X
A|--------------------------1-1-1-3-----|
E|--------------------------------------|

G|----1--3-----------|
D|-1--------4-1----0-|     1X
A|---------------3---|
E|-------------------|

G|----1----1-3--3-4-3-1--------|
D|-1-----4--------------1----0-|     1X
A|-------------------------3---|
E|-----------------------------|

G|----1--3-----------|
D|-1--------4-1----0-|     1X
A|---------------3---|
E|-------------------|

G|-------1-3----4-3-1---1-3-------------|
D|-1-4-1-----1--------4-------------0-1-|     2X
A|--------------------------1-1-1-3-----|
E|--------------------------------------|

G|----1--3-----------|
D|-1--------4-1----0-|     3X
A|---------------3---|
E|-------------------|

G|-------1-3----4-3-1---1-3-------------|
D|-1-4-1-----1--------4-------------0-1-|     2X
A|--------------------------1-1-1-3-----|
E|--------------------------------------|

G|----1--3--3-4-3-1-|
D|-1----------------|     1x
A|------------------|
E|------------------|

G|----1--3-----------|
D|-1--------4-1------|     1X
A|---------------|
E|-------------------|

G|----1----1-3--3-4-3-1---|
D|-1-----4--------------1-|     1X
A|------------------------|
E|------------------------|

G|-------1------4-3-1-----3-------------|
D|-1-4-1----------------------------0-1-|     1X
A|--------------------------1-1-1-3-----|
E|--------------------------------------|

G|-------1-3----4-3-1-----3-------------|
D|-1-4-1----------------------------0-1-|     1X
A|--------------------------1-1-1-3-----|
E|--------------------------------------|

G|-------1-3----4-3-1-----3-------------|
D|-1-4-1-----1----------------------0-1-|     2X
A|--------------------------1-1-1-3-----|
E|--------------------------------------|

G|-------1------4-3-1-----3-------------|
D|-1-4-1----------------------------0-1-|     1X
A|--------------------------1-1-1-3-----|
E|--------------------------------------|


G|-------1-3----4-3-1-----3-------------|
D|-1-4-1-----1----------------------0-1-|     1X
A|--------------------------1-1-1-3-----|
E|--------------------------------------|    

Added On December 16th, 2013

SHARE

Comments

blog comments powered by Disqus

ADVERTISEMENT