Zebrahead Tabs

Swing

1 versions

TAB

            Swing Tab by Zebrahead


Zebrahead
Waste of mind tabs
by Ryan

Swing - Standard tuning

Intro/Outro
===========
1)-5-5-5-5-3-3-3-3-3-4-
2)-5-5-5-5-3-3-3-3-5-6-
3)-6-6-6-6-4-4-4-4-5-6-
4)-7-7-7-7-5-5-5-5-5-6-
5)---------------------
6)---------------------

Chorus
===========
1)---------------------
2)---------------------
3)-----------------5-6-
4)-7-7-7-7-5-5-5-5-5-6-
5)-7-7-7-7-5-5-5-5-3-4-
6)-5-5-5-5-3-3-3-3-----

Riff 1
===========
1)-7-9-10-9-10-9-
2)-7-9-10-9-10-9-
3)---------------
4)---------------
5)---------------
6)---------------

Bridge 1 
============
1)-------
2)--------
3)--------
4)-/9-/10-
5)-/9-/10-
6)-/7-/8--

Bridge 2
========
1)---------------
2)---------------
3)---------------
4)---4---5-------
5)-2---3---4-4-4-
6)---------2-2-2-
          | p.m |    

Added On December 16th, 2013

SHARE

Comments

blog comments powered by Disqus

ADVERTISEMENT